PrimaNota.ru - самый крупный в мире бесплатный архив песенных текстов, аккордов, табулатур и нот


Enter Shikari - Hectic - текст песни, таба, видео

Регистрация Запомнить меня
Войти через:  Facebook Google Twitter Vk Yandex Mail.ru

Enter Shikari - Hectic - текст песни, таба, видео

Печатать
Просмотров: 190
-------------------------------------------------------------------------------
			    Hectic - Enter Shikari
-------------------------------------------------------------------------------
Tabbed by: ArcadianWarrior
Email: arcadian.soldier@gmail.com

Tuning: Drop C (DAFCGC)


After staying up all night and drinking a bunch of tea and sugar me and my cousin tabbed 
this song. So I'm not taking full credit for this, because he
helped me to >.>
We tabbed this with the intention of the guitar having no breaks. Not all of these are 
parts, but we wanted to make it to where your playing something
throughout the entire song. The first Chorus build up and the outro aren't in the studio 
as far as I could hear, but I've heard it from the live
version.
However, tabbing alone, I suck horribly. I figured out the intro, the single note piano 
and the verse riff and outro and stuff like that. My cousin
figured out the chords for the verse, piano and synth. So if anybody comments requesting 
can you do The Jester" or "Hey can you do No Sleep Tonight";
Chances are that it's not gonna happen. Because I rarely ever go to my cousins house, he 
he'd help me figure out this song when I came over, which
doesn't happen to often.

Enjoy!!!


D|--------------------------|
A|--------------------------|
F|--9-----11----13----14----| Intro
C|--x------x-----x-----x----|
G|--7------9----11----12----|
C|---x8-----x8----x8----x8--| x2

D|----------------------------------------------------------|
A|----------------------------------------------------------|
F|--9-----11----13----14-----13----14----16----18-----------|
C|--x------x-----x-----x------x-----x-----x-----x-----------| Intro Part 2
G|--7------9----11----12-----11----12----14----16------12~--|
C|---x8-----x8----x8----x8-----x8----x8----x8----x8---------|

Dreamy Breakdown
D|-7---10-9---12-10---14-15-14----7---10-9---12-10---5-3-|
A|-------------------------------------------------------|
F|-------------------------------------------------------|
C|-------------------------------------------------------| Piano(tabbed for guitar)
G|-------------------------------------------------------|
C|-------------------------------------------------------|

Or

D|-5----9-7---12-12---12-14-12----5----9-7---10--9---3-2-|
A|-7---10-9---12-10---14-15-14----7---10-9---12-10---5-3-|
F|-------------------------------------------------------|
C|-------------------------------------------------------| Piano(tabbed for guitar)
G|-------------------------------------------------------|
C|-------------------------------------------------------|

D|-5-5---9---7-7---12---12-12---12--14--14--12--|
A|-7-7--10---9-9---12---12-12---14--15--15--14--|
F|----------------------------------------------| Synth Build Up(tabbed for guitar)
C|----------------------------------------------|
G|----------------------------------------------|
C|----------------------------------------------|

D|-5-5---9---7-7---12---12-12----3--2--2--2--|
A|-7-7--10---9-9---12---12-12----5--3--3--3--|
F|-------------------------------------------| Synth Build Up Part 2(tabbed for guitar)
C|-------------------------------------------|
G|-------------------------------------------|
C|-------------------------------------------|

D|--------------------------------------------------------------------------|
A|--------------------------------------------------------------------------|
F|--------------------------------------------------------------------------|
C|--------------------------------------------------------------------------| Chorus 
Up
G|--------------------------------------------------------------------------|
C|-4-4-4-4-4-4-7-7-6-6-6-6-6-6-9-9-7-7-7-7-7-7-11-11-12-12-12-12-11-11-11-11|

D|------------------------------------------------------------------|
A|------------------------------------------------------------------|
F|------------------------------------------------------------------| Chorus Build Up 
2
C|------------------------------------------------------------------|
G|------------------------------------------------------------------|
C|-4-4-4-4-4-4-7-7-6-6-6-6-6-6-9-9-7-7-7-7-7-7-2-2-0-0-0-0-0-0-0-0--|


D|----------------------------------------------------------------------------------|
A|----------------------------------------------------------------------------------|
F|-7--6-6--------------6----------------------7--6-6--------------6-----------------|
C|-4--4-4----9--9-7----7--9-9-----------------4--4-4----9--9-7----7--9-9----7--6-7--| Chorus
G|-4--4-4----7--7-7----7--7-7----12--11-12----4--4-4----7--7-7----7--7-7----0--0-0--|
C|-4--4-4----6--6-6----7--7-7----12--11-12----4--4-4----6--6-6----7--7-7----0--0-0--| x2

D|----------------------------------------------------------------------------------------|
A|----------------------------------------------------------------------------------------|
F|-19-19-19---18-18-18----16-16-16---16-16-16---16-16-16---18-18-18---14-14-14---14-14-14-|

Verse Riff
G|-17-17-17---16-16-16----14-14-14---14-14-14---14-14-14---16-16-16---12-12-12---12-12-12-|
C|----------------------------------------------------------------------------------------|

D|--------------------------------------------------------------------------------------------|
A|--------------------------------------------------------------------------------------------|
F|-19-19-19--18-18-18---16-16-16---16-16-16---19-19-19\18-18-18-18\16-16\14-14-14-14-14-14/19-|
C|--x--x--x---x--x--x----x--x--x----x--x--x----x--x--x\-x--x--x--x\-x--x\-x--x--x--x--x--x/-x-|
G|-17-17-17--16-16-16---14-14-14---14-14-17---17-17-17\16-16-16-16\14-14\12-12-12-12-12-12/17-|
C|--------------------------------------------------------------------------------------------|


D|----------------------------------------------------------------------------------------|
A|----------------------------------------------------------------------------------------|
F|-19-19-19---18-18-18----16-16-16---16-16-16---16-16-16---18-18-18---14-14-14---14-14-14-|
C|--x--x--x----x--x--x-----x--x--x----x--x--x----x--x--x----x--x--x----x--x--x----x--x--x-|
G|-17-17-17---16-16-16----14-14-14---14-14-14---14-14-14---16-16-16---12-12-12---12-12-12-|
C|----------------------------------------------------------------------------------------|

D|-------------------------------------------------------------------------|
A|-------------------------------------------------------------------------|
F|-19-19-19--18-18-18---16-16-16---16-16-16---16/14-14-14---16-16---14-14--|
C|--x--x--x---x--x--x----x--x--x----x--x--x----x/-x--x--x----x--x----x--x--|
G|-17-17-17--16-16-16---14-14-14---14-14-14---14/12-12-12---14-14---12-12--|
C|-------------------------------------------------------------------------|

"Oh if I could Kidnap that feeling..."
D|-7---10-9---12-10---14-15-14----7---10-9---12-10---5-3-|
A|-------------------------------------------------------|
F|-------------------------------------------------------|
C|-------------------------------------------------------| Piano(tabbed for guitar)
G|-------------------------------------------------------|
C|-------------------------------------------------------|

Or

D|-5----9-7---12-12---12-14-12----5----9-7---10--9---3-2-|
A|-7---10-9---12-10---14-15-14----7---10-9---12-10---5-3-|
F|-------------------------------------------------------|
C|-------------------------------------------------------| Piano(tabbed for guitar)
G|-------------------------------------------------------|
C|-------------------------------------------------------|

D|--------------------------|
A|--------------------------|
F|--9-----11----13----14----|
C|--x------x-----x-----x----|
G|--7------9----11----12----|
C|---x8-----x8----x8----x8--| x2

D|-------------------------------------------------------|
A|-------------------------------------------------------|
F|--9-----11----13----14-----13----14----16----18--------|
C|--x------x-----x-----x------x-----x-----x-----x--------|
G|--7------9----11----12-----11----12----14----16--------|
C|---x8-----x8----x8----x8-----x8----x8----x8----x8------|

D|---------------------17-17-17-17-17--|
A|---------------------20-20-20-20-20--|
F|-18-----19----21---------------------| Chorus Build Up
C|--x------x-----x---------------------|
G|-16-----17----19---------------------|
C|---x24----x8----x16------------------|

D|----------------------------------------------------------------------------------|
A|----------------------------------------------------------------------------------|
F|-7--6-6--------------6----------------------7--6-6--------------6-----------------|
C|-4--4-4----9--9-7----7--9-9-----------------4--4-4----9--9-7----7--9-9----7--6-7--| Chorus
G|-4--4-4----7--7-7----7--7-7----12--11-12----4--4-4----7--7-7----7--7-7----0--0-0--|
C|-4--4-4----6--6-6----7--7-7----12--11-12----4--4-4----6--6-6----7--7-7----0--0-0--|

D|-----------------------------------------------------------------|
A|-----------------------------------------------------------------|
F|-7--6-6--------------6----------------------7--6-6---------------|
C|-4--4-4----9--9-7----7--9-9-----------------4--4-4----9--9-7-----|
G|-4--4-4----7--7-7----7--7-7----12--11-12----4--4-4----7--7-7-----|
C|-4--4-4----6--6-6----7--7-7----12--11-12----4--4-4----6--6-6-----|

D|---------------------------|
A|---------------------------|
F|-14-14-14--16-16--14-14-14-|
C|--x--x--x---x--x---x--x--x-| Outro
G|-12-12-12--14-14--12-12-12-|
C|---------------------------| x3

D|-------------------------|
A|-------------------------|
F|-14-14-14--16-16--14-14--|
C|--x--x--x---x--x---x--x--|
G|-12-12-12--14-14--12-12--|
C|-------------------------|

The End :D
As for the rest of the songs on this album, your all on your own again ;p

| /  slide up
| \  slide down
| h  hammer-on
| p  pull-off
| ~  vibrato
| +  harmonic
| x  Mute note
===============================================================================
Добавлено: 28.06.2013
Другие материалы по этой песне:
  • Аккорды и текст

Страница создана 28.06.2013
http://primanota.ru/enter-shikari/hectic-chords.htm
Привет, Гость.
Предлагаем пройти революционный курс по гитаре.
Подарок от PrimaNota.Ru, забирай!