PrimaNota.ru - самый крупный в мире бесплатный архив песенных текстов, аккордов, табулатур и нот


Enslaved - Ruun - текст песни, таба, видео

Регистрация Запомнить меня
Войти через:  Facebook Google Twitter Vk Yandex Mail.ru

Enslaved - Ruun - текст песни, таба, видео

Печатать
Просмотров: 133
Авторы музыки: Ivar Peersen
Авторы текста: Ivar Peersen
As recorded by Enslaved

Transcribed by benjamik
        



Gtr I (Db Gb B E Ab Db) - 'Untitled'
Gtr II (Db Gb B E Ab Db) - 'Untitled'
Gtr III (Db Gb B E Ab Db) - 'Untitled'
Gtr IV (Db Gb B E Ab Db) - 'Untitled'
Gtr V (Db Gb B E Ab Db) - 'Untitled'
Gtr VI (Db Gb B E Ab Db) - 'Untitled'

 Intro
  Q=65
 1/4    7/8
         Gtr I
  Q      S S S S S S  S  S  S S S S  S  S
|----||------------------------------------|
|----||o--------------------------0-(0)(0)-|
|----||------------1-(1)(1)---0h1----------|
|----||----2h3-2h3----2S=3-----------2S=3--|
|----||o-----------------------------------|
|----||------------------------------------|
|
|        Gtr II
| Q      S S S S S S  S  S  S S S S  S  S
|----||------------4-(4)(4)-------7-(7)(7)-|
|----||o---5h6-5h6----5h=6----6h9----5h=6--|
|----||------------------------------------|
|----||------------------------------------|
|----||o-----------------------------------|
|----||------------------------------------|


  S S S S S S  S  S  S S S S  S  S
|-------------------------------------||
|--------------------------0-(0)(0)--o||
|-----------1-(1)(1)---0h1------------||
|---2h3-2h3----2S=3-----------2S=3----||
|------------------------------------o||
|-------------------------------------||
|
| S S S S S S  S  S  S S S S  S  S
|-----------4-(4)(4)-------7-(7)(7)---||
|---5h6-5h6----5h=6----6h9----5h=6---o||
|-------------------------------------||
|-------------------------------------||
|------------------------------------o||
|-------------------------------------||


    S S S S S S  S  S  S S S S  S  S    S S S S S S  S  S  S S S S  S  S
||------------------------------------|------------------------------------||
||o--------------------------0-(0)(0)-|--------------------------0-(0)(0)-o||
||------------1-(1)(1)---0h1----------|-----------1-(1)(1)---0h1-----------||
||----2h3-2h3----2S=3-----------2S=3--|---2h3-2h3----2S=3-----------2S=3---||
||o-----------------------------------|-----------------------------------o||
||------------------------------------|------------------------------------||
|
|   S S S S S S  S  S  S S S S  S  S    S S S S S S  S  S  S S S S  S  S
||------------4-(4)(4)-------7-(7)(7)-|-----------4-(4)(4)-------7-(7)(7)--||
||o---5h6-5h6----5h=6----6h9----5h=6--|---5h6-5h6----5h=6----6h9----5h=6--o||
||------------------------------------|------------------------------------||
||------------------------------------|------------------------------------||
||o-----------------------------------|-----------------------------------o||
||------------------------------------|------------------------------------||
|
|   Gtr III
|   PM---------------------------------------------------------|
|   S S S S S S  S  S  S S S S  S  S    S S S S S S  S  S  S S S S  S  S
||------------------------------------|------------------------------------||
||o-----------------------------------|-----------------------------------o||
||------------------------------------|------------------------------------||
||------------------------------------|------------------------------------||
||o---7-8---7-8-----5--7---4-5-----5--|-7---7-8---5--7-----4-5---5--7--8--o||
||--0-----0------0-------0------0-----|---0-----0-------0------0-----------||


    S S S   S   S S   +S   S S S S    S     S     S
||-----------------------------------------------------|
||o---------------0---(0)-(0)---------3----(3)---(3)---|
||-----------------------------------------------------|
||-----------------------------0h2----------0h====2----|
||o---4h5---4h==5----------4h5-------------------------|
||-----------------------------------------------------|
|
|   S S S   S   S S   +S   S S S S    S     S     S
||----------------7---(7)-(7)--------10---(10)--(10)---|
||o----------------------------------------------------|
||----6h7---6h==7----------6h7-7h9----------7h====9----|
||-----------------------------------------------------|
||o----------------------------------------------------|
||-----------------------------------------------------|
|
|   PM  PM------------|      PM  PM---------------------
|   S S T T T T S T T  S   S S S T T  T T   T T   T  T
||-----------------------------------------------------|
||o----------------------------------------------------|
||-----------------------------------------------------|
||-----------------------------------------------------|
||o-7---7-7-7-7-7-7-7--7-----7---7-7--7-7---7-7---7--7-|
||-----------------------------------------------------|


  S S S   S   S S   +S   S S S S   S    S    S
|--------------------------------------------------||
|---------------0---(0)-(0)-----------------------o||
|----------------------------------1---(1)--(1)----||
|----------------------------0h2--------0h===2-----||
|---4h5---4h==5----------4h5----------------------o||
|--------------------------------------------------||
|
| S S S   S   S S   +S   S S S S   S    S    S
|---------------7---(7)-(7)------------------------||
|----------------------------------9---(9)--(9)---o||
|---6h7---6h==7----------6h7-7h9--------7h===9-----||
|--------------------------------------------------||
|-------------------------------------------------o||
|--------------------------------------------------||
|
|-|   PM------------|      PM  PM---------------|
| S S T T T T S T T  S   S S S T T T T  T T  T  T
|--------------------------------------------------||
|-------------------------------------------------o||
|--------------------------------------------------||
|--------------------------------------------------||
|-7---7-7-7-7-7-7-7--7-----7---7-7-7-7--7-7--7--7-o||
|--------------------------------------------------||


   Verse
    Gtr II
    S S S S S S  S  S  S S S S  S  S
      | | | | |  |  |    | | |  |  |
      o o o o o  o  o    o o o  o  o

    Gtr IV
    S S S S S S  S  S  S S S S  S  S
||------------------------------------|
||o--------------------------0-(0)(0)-|
||------------1-(1)(1)---0h1----------|
||----2h3-2h3----2S=3-----------2S=3--|
||o-----------------------------------|
||------------------------------------|
|
|   Gtr III
|   PM---------------------------------
|   S S S S S S  S  S  S S S S  S  S
||------------------------------------|
||o-----------------------------------|
||------------------------------------|
||------------------------------------|
||o---7-8---7-8-----5--7---4-5-----5--|
||--0-----0------0-------0------0-----|


  S S S S S S  S  S  S S S S  S  S    S S S S S S  S  S  S S S S  S  S
    | | | | |  |  |    | | |  |  |      | | | | |  |  |    | | |  |  |
    o o o o o  o  o    o o o  o  o      o o o o o  o  o    o o o  o  o

  S S S S S S  S  S  S S S S  S  S    S S S S S S  S  S  S S S S  S  S
|-----------------------------------|-------------------------------------|
|--------------------------0-(0)(0)-|--------------------------0-(0)(0)---|
|-----------1-(1)(1)---0h1----------|-----------1-(1)(1)---0h1------------|
|---2h3-2h3----2S=3-----------2S=3--|---2h3-2h3----2S=3-----------2S=3----|
|-----------------------------------|-------------------------------------|
|-----------------------------------|-------------------------------------|
|
|------------------------|            PM----------------------------|
| S S S S S S  S  S  S S S S  S  S    S S S S S S  S  S  S S S S  S  S
|-----------------------------------|-------------------------------------|
|-----------------------------------|-------------------------------------|
|-----------------------------------|-------------------------------------|
|-----------------------------------|-------------------------------------|
|-7---7-8---5--7-----4-5---5--7--8--|---7-8---7-8-----5--7---4-5-----5----|
|---0-----0-------0------0----------|-0-----0------0-------0------0-------|


  S S S S S S  S  S  S S S S  S  S    S S S   S   S S   +S   S S S S   S    S    S
    | | | | |  |  |    | | |  |  |      | |   |   | |    |   | | | |   |    |    |
    o o o o o  o  o    o o o  o  o      o o   o   o o    /   o o o o   o    o    o

  S S S S S S  S  S  S S S S  S  S    S S S   S   S S   +S   S S S S   S    S    S
|-----------------------------------|-------------------------------------------------|
|--------------------------0-(0)(0)-|---------------0---(0)-(0)--------3---(3)--(3)---|
|-----------1-(1)(1)---0h1----------|-------------------------------------------------|
|---2h3-2h3----2S=3-----------2S=3--|----------------------------0h2--------0h===2----|
|-----------------------------------|---4h5---4h==5----------4h5----------------------|
|-----------------------------------|-------------------------------------------------|
|
| PM---------------------|            PM  PM------------|      PM  PM------------------
| S S S S S S  S  S  S S S S  S  S    S S T T T T S T T  S   S S S T T T T  T T  T  T
|-----------------------------------|-------------------------------------------------|
|-----------------------------------|-------------------------------------------------|
|-----------------------------------|-------------------------------------------------|
|-----------------------------------|-------------------------------------------------|
|-7---7-8---5--7-----4-5---5--7--8--|-2---2-2-2-2-2-2-2--2-----2---2-2-2-2--2-2--2--2-|
|---0-----0-------0------0----------|-0---0-0-0-0-0-0-0--0-----0---0-0-0-0--0-0--0--0-|


  S S S   S   S S   +S   S S S S   S    S    S
    | |   |   | |    |   | | | |   |    |    |
    o o   o   o o    /   o o o o   o    o    o

  S S S   S   S S   +S   S S S S   S    S    S
|--------------------------------------------------|
|---------------0---(0)-(0)------------------------|
|----------------------------------1---(1)--(1)----|
|----------------------------0h2--------0h===2-----|
|---4h5---4h==5----------4h5-----------------------|
|--------------------------------------------------|
|
|-|   PM------------|      PM  PM---------------|
| S S T T T T S T T  S   S S S T T T T  T T  T  T
|--------------------------------------------------|
|--------------------------------------------------|
|--------------------------------------------------|
|--------------------------------------------------|
|-2---2-2-2-2-2-2-2--2-----2---2-2-2-2--2-2--2--2--|
|-0---0-0-0-0-0-0-0--0-----0---0-0-0-0--0-0--0--0--|


  S S S   S   S S   +S   S S S S   S    S    S
    | |   |   | |    |   | | | |   |    |    |
    o o   o   o o    /   o o o o   o    o    o

  S S S   S   S S   +S   S S S S   S    S    S
|-------------------------------------------------|
|---------------0---(0)-(0)--------3---(3)--(3)---|
|-------------------------------------------------|
|----------------------------0h2--------0h===2----|
|---4h5---4h==5----------4h5----------------------|
|-------------------------------------------------|
|
| PM  PM------------|      PM  PM------------------
| S S T T T T S T T  S   S S S T T T T  T T  T  T
|-------------------------------------------------|
|-------------------------------------------------|
|-------------------------------------------------|
|-------------------------------------------------|
|-2---2-2-2-2-2-2-2--2-----2---2-2-2-2--2-2--2--2-|
|-0---0-0-0-0-0-0-0--0-----0---0-0-0-0--0-0--0--0-|


                                                        Q=130
                                                     4/4
  S S S   S   S S   +S   S S S S   S    S    S        W
    | |   |   | |    |   | | | |   |    |    |
    o o   o   o o    /   o o o o   o    o    o

  S S S   S   S S   +S   S S S S   S    S    S          W
|--------------------------------------------------||--------|
|---------------0---(0)-(0)-----------------------o||--------|
|----------------------------------1---(1)--(1)----||--------|
|----------------------------0h2--------0h===2-----||---2----|
|---4h5---4h==5----------4h5----------------------o||---2----|
|--------------------------------------------------||---0----|
|
|-|   PM------------|      PM  PM---------------|
| S S T T T T S T T  S   S S S T T T T  T T  T  T       W
|--------------------------------------------------||--------|
|-------------------------------------------------o||--------|
|--------------------------------------------------||--------|
|--------------------------------------------------||---2----|
|-2---2-2-2-2-2-2-2--2-----2---2-2-2-2--2-2--2--2-o||---2----|
|-0---0-0-0-0-0-0-0--0-----0---0-0-0-0--0-0--0--0--||---0----|


  Gtrs III, IV
   >
  +W           +W           +W           +W           +W
|------------|------------|------------|------------|--------|
|------------|------------|------------|------------|--------|
|------------|------------|------------|------------|--------|
|-(2)--------|-(2)--------|-(2)--------|-(2)--------|-(2)----|
|-(2)--------|-(2)--------|-(2)--------|-(2)--------|-(2)----|
|-(0)--------|-(0)--------|-(0)--------|-(0)--------|-(0)----|


 Pre-verse
  Gtr III
  S S S S S S S S S S S S S S S S   S S S S S S S S S S S S S S S S
|---------------------------------|---------------------------------|
|-8-8-8-8-8-8-8-8-8-8-8-8-8-8-8-8-|-8-8-8-8-8-8-8-8-8-8-8-8-6-6-6-6-|
|-9-9-9-9-9-9-9-9-9-9-9-9-9-9-9-9-|-9-9-9-9-9-9-9-9-9-9-9-9-7-7-7-7-|
|-9-9-9-9-9-9-9-9-9-9-9-9-9-9-9-9-|-9-9-9-9-9-9-9-9-9-9-9-9-7-7-7-7-|
|---------------------------------|---------------------------------|
|---------------------------------|---------------------------------|
|
| Gtr IV
| S S S S S S S S S S S S S S S S   S S S S S S S S S S S S S S S S
|---------------------------------|---------------------------------|
|-8-8-8-8-8-8-8-8-8-8-8-8-8-8-8-8-|-8-8-8-8-8-8-8-8-8-8-8-8-6-6-6-6-|
|-9-9-9-9-9-9-9-9-9-9-9-9-9-9-9-9-|-9-9-9-9-9-9-9-9-9-9-9-9-7-7-7-7-|
|-9-9-9-9-9-9-9-9-9-9-9-9-9-9-9-9-|-9-9-9-9-9-9-9-9-9-9-9-9-7-7-7-7-|
|---------------------------------|---------------------------------|
|---------------------------------|---------------------------------|


  S S S S S S S S S S S S S S S S   S S S S S S S S S S S S S S S S
|---------------------------------|------------------------------------|
|-5-5-5-5-5-5-5-5-5-5-5-5-5-5-5-5-|-5-5-5-5-5-5-5-5-5-5-5-5-5-5-5-5----|
|-6-6-6-6-6-6-6-6-6-6-6-6-6-6-6-6-|-6-6-6-6-6-6-6-6-6-6-6-6-6-6-6-6----|
|-6-6-6-6-6-6-6-6-6-6-6-6-6-6-6-6-|-6-6-6-6-6-6-6-6-6-6-6-6-6-6-6-6----|
|---------------------------------|------------------------------------|
|---------------------------------|------------------------------------|
|
| S S S S S S S S S S S S S S S S   S S S S S S S S S S S S S S S S
|---------------------------------|------------------------------------|
|-5-5-5-5-5-5-5-5-5-5-5-5-5-5-5-5-|-5-5-5-5-5-5-5-5-5-5-5-5-5-5-5-5----|
|-6-6-6-6-6-6-6-6-6-6-6-6-6-6-6-6-|-6-6-6-6-6-6-6-6-6-6-6-6-6-6-6-6----|
|-6-6-6-6-6-6-6-6-6-6-6-6-6-6-6-6-|-6-6-6-6-6-6-6-6-6-6-6-6-6-6-6-6----|
|---------------------------------|------------------------------------|
|---------------------------------|------------------------------------|


  S S S S S S S S S S S S S S S S   S S S S S S S S S S S S S S S S
|---------------------------------|---------------------------------|
|---------------------------------|---------------------------------|
|-4-4-4-4-4-4-4-4-2-2-2-2-2-2-2-2-|---------------------------------|
|---------------------------------|-4-4-4-4-4-4-4-4-2-2-2-2-2-2-2-2-|
|---------------------------------|---------------------------------|
|---------------------------------|---------------------------------|
|
| S S S S S S S S S S S S S S S S   S S S S S S S S S S S S S S S S
|---------------------------------|---------------------------------|
|---------------------------------|---------------------------------|
|-4-4-4-4-4-4-4-4-4-4-4-4-4-4-4-4-|-4-4-4-4-4-4-4-4-4-4-4-4-4-4-4-4-|
|-5-5-5-5-5-5-5-5-5-5-5-5-5-5-5-5-|-5-5-5-5-5-5-5-5-5-5-5-5-5-5-5-5-|
|-3-3-3-3-3-3-3-3-3-3-3-3-3-3-3-3-|-3-3-3-3-3-3-3-3-3-3-3-3-3-3-3-3-|
|---------------------------------|---------------------------------|


  S S S S S S S S S S S S S S S S   S S S S S S S S S S S S S S S S
|---------------------------------|------------------------------------|
|---------------------------------|------------------------------------|
|-4-4-4-4-4-4-4-4-2-2-2-2-2-2-2-2-|------------------------------------|
|---------------------------------|-4-4-4-4-4-4-4-4-5-5-5-5-5-5-5-5----|
|---------------------------------|------------------------------------|
|---------------------------------|------------------------------------|
|
| S S S S S S S S S S S S S S S S   S S S S S S S S S S S S S S S S
|---------------------------------|------------------------------------|
|---------------------------------|------------------------------------|
|-4-4-4-4-4-4-4-4-4-4-4-4-4-4-4-4-|-4-4-4-4-4-4-4-4-4-4-4-4-4-4-4-4----|
|-5-5-5-5-5-5-5-5-5-5-5-5-5-5-5-5-|-5-5-5-5-5-5-5-5-5-5-5-5-5-5-5-5----|
|-3-3-3-3-3-3-3-3-3-3-3-3-3-3-3-3-|-3-3-3-3-3-3-3-3-3-3-3-3-3-3-3-3----|
|---------------------------------|------------------------------------|


  S S S S S S S S S S S S S S S S   S S S S S S S S S S S S S S S S
|---------------------------------|---------------------------------|
|-8-8-8-8-8-8-8-8-8-8-8-8-8-8-8-8-|-8-8-8-8-8-8-8-8-8-8-8-8-6-6-6-6-|
|-9-9-9-9-9-9-9-9-9-9-9-9-9-9-9-9-|-9-9-9-9-9-9-9-9-9-9-9-9-7-7-7-7-|
|-9-9-9-9-9-9-9-9-9-9-9-9-9-9-9-9-|-9-9-9-9-9-9-9-9-9-9-9-9-7-7-7-7-|
|-7-7-7-7-7-7-7-7-7-7-7-7-7-7-7-7-|-7-7-7-7-7-7-7-7-7-7-7-7-5-5-5-5-|
|---------------------------------|---------------------------------|
|
| S S S S S S S S S S S S S S S S   S S S S S S S S S S S S S S S S
|---------------------------------|---------------------------------|
|---------------------------------|---------------------------------|
|-9-9-9-9-9-9-9-9-9-9-9-9-9-9-9-9-|-9-9-9-9-9-9-9-9-9-9-9-9-7-7-7-7-|
|-9-9-9-9-9-9-9-9-9-9-9-9-9-9-9-9-|-9-9-9-9-9-9-9-9-9-9-9-9-7-7-7-7-|
|-7-7-7-7-7-7-7-7-7-7-7-7-7-7-7-7-|-7-7-7-7-7-7-7-7-7-7-7-7-5-5-5-5-|
|-7-7-7-7-7-7-7-7-7-7-7-7-7-7-7-7-|-7-7-7-7-7-7-7-7-7-7-7-7-5-5-5-5-|


  S S S S S S S S S S S S S S S S   S S S S S S S S S S S S S S S S
|---------------------------------|------------------------------------|
|-5-5-5-5-5-5-5-5-5-5-5-5-5-5-5-5-|-5-5-5-5-5-5-5-5-5-5-5-5-5-5-5-5----|
|-6-6-6-6-6-6-6-6-6-6-6-6-6-6-6-6-|-6-6-6-6-6-6-6-6-6-6-6-6-6-6-6-6----|
|-6-6-6-6-6-6-6-6-6-6-6-6-6-6-6-6-|-6-6-6-6-6-6-6-6-6-6-6-6-6-6-6-6----|
|-4-4-4-4-4-4-4-4-4-4-4-4-4-4-4-4-|-4-4-4-4-4-4-4-4-4-4-4-4-4-4-4-4----|
|---------------------------------|------------------------------------|
|
| S S S S S S S S S S S S S S S S   S S S S S S S S S S S S S S S S
|---------------------------------|------------------------------------|
|---------------------------------|------------------------------------|
|-6-6-6-6-6-6-6-6-6-6-6-6-6-6-6-6-|-6-6-6-6-6-6-6-6-6-6-6-6-6-6-6-6----|
|-6-6-6-6-6-6-6-6-6-6-6-6-6-6-6-6-|-6-6-6-6-6-6-6-6-6-6-6-6-6-6-6-6----|
|-4-4-4-4-4-4-4-4-4-4-4-4-4-4-4-4-|-4-4-4-4-4-4-4-4-4-4-4-4-4-4-4-4----|
|-4-4-4-4-4-4-4-4-4-4-4-4-4-4-4-4-|-4-4-4-4-4-4-4-4-4-4-4-4-4-4-4-4----|


  S S S S S S S S S S S S S S S S   S S S S S S S S S S S S S S S S
|---------------------------------|---------------------------------|
|---------------------------------|---------------------------------|
|-4-4-4-4-4-4-4-4-2-2-2-2-2-2-2-2-|---------------------------------|
|---------------------------------|-4-4-4-4-4-4-4-4-2-2-2-2-2-2-2-2-|
|---------------------------------|---------------------------------|
|---------------------------------|---------------------------------|
|
| S S S S S S S S S S S S S S S S   S S S S S S S S S S S S S S S S
|---------------------------------|---------------------------------|
|---------------------------------|---------------------------------|
|-4-4-4-4-4-4-4-4-4-4-4-4-4-4-4-4-|-4-4-4-4-4-4-4-4-4-4-4-4-4-4-4-4-|
|-5-5-5-5-5-5-5-5-5-5-5-5-5-5-5-5-|-5-5-5-5-5-5-5-5-5-5-5-5-5-5-5-5-|
|-3-3-3-3-3-3-3-3-3-3-3-3-3-3-3-3-|-3-3-3-3-3-3-3-3-3-3-3-3-3-3-3-3-|
|-3-3-3-3-3-3-3-3-3-3-3-3-3-3-3-3-|-3-3-3-3-3-3-3-3-3-3-3-3-3-3-3-3-|


  S S S S S S S S S S S S S S S S   S S S S S S S S S S S S S S S S
|---------------------------------|------------------------------------|
|---------------------------------|------------------------------------|
|-4-4-4-4-4-4-4-4-2-2-2-2-2-2-2-2-|------------------------------------|
|---------------------------------|-4-4-4-4-4-4-4-4-5-5-5-5-5-5-5-5----|
|---------------------------------|------------------------------------|
|---------------------------------|------------------------------------|
|
| S S S S S S S S S S S S S S S S   S S S S S S S S S S S S S S S S
|---------------------------------|------------------------------------|
|---------------------------------|------------------------------------|
|-4-4-4-4-4-4-4-4-4-4-4-4-4-4-4-4-|-4-4-4-4-4-4-4-4-4-4-4-4-4-4-4-4----|
|-5-5-5-5-5-5-5-5-5-5-5-5-5-5-5-5-|-5-5-5-5-5-5-5-5-5-5-5-5-5-5-5-5----|
|-3-3-3-3-3-3-3-3-3-3-3-3-3-3-3-3-|-3-3-3-3-3-3-3-3-3-3-3-3-3-3-3-3----|
|-3-3-3-3-3-3-3-3-3-3-3-3-3-3-3-3-|-3-3-3-3-3-3-3-3-3-3-3-3-3-3-3-3----|


   Verse 2 & 3
    $
    S S S S S S S S S S S S S S S S   S S S S S S S S S S S S S S S S
||----------------------------------|---------------------------------|
||o-8-8-8-8-8-8-8-8-8-8-8-8-8-8-8-8-|-8-8-8-8-8-8-8-8-8-8-8-8-6-6-6-6-|
||--9-9-9-9-9-9-9-9-9-9-9-9-9-9-9-9-|-9-9-9-9-9-9-9-9-9-9-9-9-7-7-7-7-|
||--9-9-9-9-9-9-9-9-9-9-9-9-9-9-9-9-|-9-9-9-9-9-9-9-9-9-9-9-9-7-7-7-7-|
||o-7-7-7-7-7-7-7-7-7-7-7-7-7-7-7-7-|-7-7-7-7-7-7-7-7-7-7-7-7-5-5-5-5-|
||----------------------------------|---------------------------------|
|
|   S S S S S S S S S S S S S S S S   S S S S S S S S S S S S S S S S
||----------------------------------|---------------------------------|
||o---------------------------------|---------------------------------|
||--9-9-9-9-9-9-9-9-9-9-9-9-9-9-9-9-|-9-9-9-9-9-9-9-9-9-9-9-9-7-7-7-7-|
||--9-9-9-9-9-9-9-9-9-9-9-9-9-9-9-9-|-9-9-9-9-9-9-9-9-9-9-9-9-7-7-7-7-|
||o-7-7-7-7-7-7-7-7-7-7-7-7-7-7-7-7-|-7-7-7-7-7-7-7-7-7-7-7-7-5-5-5-5-|
||--7-7-7-7-7-7-7-7-7-7-7-7-7-7-7-7-|-7-7-7-7-7-7-7-7-7-7-7-7-5-5-5-5-|


  S S S S S S S S S S S S S S S S   S S S S S S S S S S S S S S S S
|---------------------------------|------------------------------------|
|-5-5-5-5-5-5-5-5-5-5-5-5-5-5-5-5-|-5-5-5-5-5-5-5-5-5-5-5-5-5-5-5-5----|
|-6-6-6-6-6-6-6-6-6-6-6-6-6-6-6-6-|-6-6-6-6-6-6-6-6-6-6-6-6-6-6-6-6----|
|-6-6-6-6-6-6-6-6-6-6-6-6-6-6-6-6-|-6-6-6-6-6-6-6-6-6-6-6-6-6-6-6-6----|
|-4-4-4-4-4-4-4-4-4-4-4-4-4-4-4-4-|-4-4-4-4-4-4-4-4-4-4-4-4-4-4-4-4----|
|---------------------------------|------------------------------------|
|
| S S S S S S S S S S S S S S S S   S S S S S S S S S S S S S S S S
|---------------------------------|------------------------------------|
|---------------------------------|------------------------------------|
|-6-6-6-6-6-6-6-6-6-6-6-6-6-6-6-6-|-6-6-6-6-6-6-6-6-6-6-6-6-6-6-6-6----|
|-6-6-6-6-6-6-6-6-6-6-6-6-6-6-6-6-|-6-6-6-6-6-6-6-6-6-6-6-6-6-6-6-6----|
|-4-4-4-4-4-4-4-4-4-4-4-4-4-4-4-4-|-4-4-4-4-4-4-4-4-4-4-4-4-4-4-4-4----|
|-4-4-4-4-4-4-4-4-4-4-4-4-4-4-4-4-|-4-4-4-4-4-4-4-4-4-4-4-4-4-4-4-4----|


  S S S S S S S S S S S S S S S S   S S S S S S S S S S S S S S S S
|---------------------------------|---------------------------------|
|---------------------------------|---------------------------------|
|-4-4-4-4-4-4-4-4-2-2-2-2-2-2-2-2-|---------------------------------|
|---------------------------------|-4-4-4-4-4-4-4-4-2-2-2-2-2-2-2-2-|
|---------------------------------|---------------------------------|
|---------------------------------|---------------------------------|
|
| S S S S S S S S S S S S S S S S   S S S S S S S S S S S S S S S S
|---------------------------------|---------------------------------|
|---------------------------------|---------------------------------|
|-4-4-4-4-4-4-4-4-4-4-4-4-4-4-4-4-|-4-4-4-4-4-4-4-4-4-4-4-4-4-4-4-4-|
|-5-5-5-5-5-5-5-5-5-5-5-5-5-5-5-5-|-5-5-5-5-5-5-5-5-5-5-5-5-5-5-5-5-|
|-3-3-3-3-3-3-3-3-3-3-3-3-3-3-3-3-|-3-3-3-3-3-3-3-3-3-3-3-3-3-3-3-3-|
|-3-3-3-3-3-3-3-3-3-3-3-3-3-3-3-3-|-3-3-3-3-3-3-3-3-3-3-3-3-3-3-3-3-|


  S S S S S S S S S S S S S S S S   S S S S S S S S S S S S S S S S
|---------------------------------|-------------------------------------||
|---------------------------------|------------------------------------o||
|-4-4-4-4-4-4-4-4-2-2-2-2-2-2-2-2-|-------------------------------------||
|---------------------------------|-4-4-4-4-4-4-4-4-5-5-5-5-5-5-5-5-----||
|---------------------------------|------------------------------------o||
|---------------------------------|-------------------------------------||
|
| S S S S S S S S S S S S S S S S   S S S S S S S S S S S S S S S S
|---------------------------------|-------------------------------------||
|---------------------------------|------------------------------------o||
|-4-4-4-4-4-4-4-4-4-4-4-4-4-4-4-4-|-4-4-4-4-4-4-4-4-4-4-4-4-4-4-4-4-----||
|-5-5-5-5-5-5-5-5-5-5-5-5-5-5-5-5-|-5-5-5-5-5-5-5-5-5-5-5-5-5-5-5-5-----||
|-3-3-3-3-3-3-3-3-3-3-3-3-3-3-3-3-|-3-3-3-3-3-3-3-3-3-3-3-3-3-3-3-3----o||
|-3-3-3-3-3-3-3-3-3-3-3-3-3-3-3-3-|-3-3-3-3-3-3-3-3-3-3-3-3-3-3-3-3-----||


   Chorus
    Gtrs III, IV
     S S S S S S S S  S S S S S S S S    S S S S S S S S S S S S S S S S
||------------------------------------|----------------------------------|
||o--8-8-8-8-8-8-8-8--8-8-8-8-8-8-8-8-|--8-8-8-8-8-8-8-8-8-8-8-8-8-8-8-8-|
||---9-9-9-9-9-9-9-9--9-9-9-9-9-9-9-9-|--9-9-9-9-9-9-9-9-9-9-9-9-9-9-9-9-|
||---9-9-9-9-9-9-9-9--9-9-9-9-9-9-9-9-|--9-9-9-9-9-9-9-9-9-9-9-9-9-9-9-9-|
||o--7-7-7-7-7-7-7-7--7-7-7-7-7-7-7-7-|--7-7-7-7-7-7-7-7-7-7-7-7-7-7-7-7-|
||---0-0-0-0-0-0-0-0--0-0-0-0-0-0-0-0-|--0-0-0-0-0-0-0-0-0-0-0-0-0-0-0-0-|
|
|   Gtr VI
|    H                H                  H               H
||--15---------------14---------------|-10---------------7---------------|
||o-----------------------------------|----------------------------------|
||--12---------------11---------------|--7---------------4---------------|
||------------------------------------|----------------------------------|
||o-----------------------------------|----------------------------------|
||------------------------------------|----------------------------------|


   S S S S S S S S  S S S S S S S S    S S S S S S S S S S S S S S S S
|-----------------------------------|-------------------------------------|
|--8-8-8-8-8-8-8-8--8-8-8-8-8-8-8-8-|--8-8-8-8-8-8-8-8-8-8-8-8-8-8-8-8----|
|--9-9-9-9-9-9-9-9--9-9-9-9-9-9-9-9-|--9-9-9-9-9-9-9-9-9-9-9-9-9-9-9-9----|
|--9-9-9-9-9-9-9-9--9-9-9-9-9-9-9-9-|--9-9-9-9-9-9-9-9-9-9-9-9-9-9-9-9----|
|--7-7-7-7-7-7-7-7--7-7-7-7-7-7-7-7-|--7-7-7-7-7-7-7-7-7-7-7-7-7-7-7-7----|
|--0-0-0-0-0-0-0-0--0-0-0-0-0-0-0-0-|--0-0-0-0-0-0-0-0-0-0-0-0-0-0-0-0----|
|
|  H                H                  H               H
|-15---------------14---------------|-10---------------7------------------|
|-----------------------------------|-------------------------------------|
|-12---------------11---------------|--7---------------4------------------|
|-----------------------------------|-------------------------------------|
|-----------------------------------|-------------------------------------|
|-----------------------------------|-------------------------------------|


   S S S S S S S S  S S S S S S S S    S  S  S  S  S  S  S  S  S  S  S  S  S  S  S  S
|-----------------------------------|-------------------------------------------------|
|--9-9-9-9-9-9-9-9--9-9-9-9-9-9-9-9-|-10-10-10-10-10-10-10-10-10-10-10-10-10-10-10-10-|
|--9-9-9-9-9-9-9-9--9-9-9-9-9-9-9-9-|-10-10-10-10-10-10-10-10-10-10-10-10-10-10-10-10-|
|--9-9-9-9-9-9-9-9--9-9-9-9-9-9-9-9-|-10-10-10-10-10-10-10-10-10-10-10-10-10-10-10-10-|
|--7-7-7-7-7-7-7-7--7-7-7-7-7-7-7-7-|--8--8--8--8--8--8--8--8--8--8--8--8--8--8--8--8-|
|-----------------------------------|-------------------------------------------------|
|
|  H                H                  H                       H
|-12---------------11---------------|--5-----------------------7----------------------|
|-----------------------------------|-------------------------------------------------|
|--9----------------8---------------|--2-----------------------4----------------------|
|-----------------------------------|-------------------------------------------------|
|-----------------------------------|-------------------------------------------------|
|-----------------------------------|-------------------------------------------------|


                           To Coda
   S S S S S S S S  S S S S S S S S    S  S  S  S  S  S  S  S  S  S  S  S  S  S  S  S
|-----------------------------------|-----------------------------------------------------||
|--9-9-9-9-9-9-9-9--9-9-9-9-9-9-9-9-|-10-10-10-10-10-10-10-10-10-10-10-10-10-10-10-10----o||
|--9-9-9-9-9-9-9-9--9-9-9-9-9-9-9-9-|-10-10-10-10-10-10-10-10-10-10-10-10-10-10-10-10-----||
|--9-9-9-9-9-9-9-9--9-9-9-9-9-9-9-9-|-10-10-10-10-10-10-10-10-10-10-10-10-10-10-10-10-----||
|--7-7-7-7-7-7-7-7--7-7-7-7-7-7-7-7-|--8--8--8--8--8--8--8--8--8--8--8--8--8--8--8--8----o||
|-----------------------------------|-----------------------------------------------------||
|
|  H                H                  H                       H
|-12---------------11---------------|--5-----------------------7--------------------------||
|-----------------------------------|----------------------------------------------------o||
|--9----------------8---------------|--2-----------------------4--------------------------||
|-----------------------------------|-----------------------------------------------------||
|-----------------------------------|----------------------------------------------------o||
|-----------------------------------|-----------------------------------------------------||


    Q=65
   7/8
    Gtr II
    S S S S S S  S  S  S S S S  S  S
      | | | | |  |  |    | | |  |  |
      o o o o o  o  o    o o o  o  o

    Gtr IV
    S S S S S S  S  S  S S S S  S  S
||------------------------------------|
||o--------------------------0-(0)(0)-|
||------------1-(1)(1)---0h1----------|
||----2h3-2h3----2S=3-----------2S=3--|
||o-----------------------------------|
||------------------------------------|
|
|   Gtr III
|   PM---------------------------------
|   S S S S S S  S  S  S S S S  S  S
||------------------------------------|
||o-----------------------------------|
||------------------------------------|
||------------------------------------|
||o---7-8---7-8-----5--7---4-5-----5--|
||--0-----0------0-------0------0-----|


 1.,2.,3.                              4.
                                                          D.S. al Coda
  S S S S S S  S  S  S S S S  S  S      S S S S S S  S  S  S S S S  S  S
    | | | | |  |  |    | | |  |  |        | | | | |  |  |    | | |  |  |
    o o o o o  o  o    o o o  o  o        o o o o o  o  o    o o o  o  o

  S S S S S S  S  S  S S S S  S  S      S S S S S S  S  S  S S S S  S  S
|------------------------------------||------------------------------------|
|--------------------------0-(0)(0)-o||--------------------------0-(0)(0)--|
|-----------1-(1)(1)---0h1-----------||-----------1-(1)(1)---0h1-----------|
|---2h3-2h3----2S=3-----------2S=3---||---2h3-2h3----2S=3-----------2S=3---|
|-----------------------------------o||------------------------------------|
|------------------------------------||------------------------------------|
|
|------------------------|              PM------|       PM     PM
| S S S S S S  S  S  S S S S  S  S      S S S S S S  S  S  S S S S  S  S
|------------------------------------||------------------------------------|
|-----------------------------------o||------------------------------------|
|------------------------------------||------------------------------------|
|------------------------------------||------------------------------------|
|-7---7-8---5--7-----4-5---5--7--8--o||-7---7-8---5--7-----4-5---5--7--8---|
|---0-----0-------0------0-----------||---0-----0-------0------0-----------|


                                                    Interlude
  Q=130
  &                                                  $$
 4/4
  Gtrs III, IV                                       Gtrs II, V
   S  S  S  S  S  S  S  S  S  S  S  S  S  S  S  S     Q   E  Q   Q   E
|-------------------------------------------------||--0---0--0---0---0-|
|-10-10-10-10-10-10-10-10-10-10-10-10-10-10-10-10-||--0---0--0---0---0-|
|-10-10-10-10-10-10-10-10-10-10-10-10-10-10-10-10-||-13--13-13--13--13-|
|-10-10-10-10-10-10-10-10-10-10-10-10-10-10-10-10-||-------------------|
|--8--8--8--8--8--8--8--8--8--8--8--8--8--8--8--8-||-11--11-11--11--11-|
|-------------------------------------------------||--0---0--0---0---0-|
|
| Gtr VI
|  H                       H                          W
|--5-----------------------7----------------------||-------------------|
|-------------------------------------------------||-------------------|
|--2-----------------------4----------------------||-------------------|
|-------------------------------------------------||-------------------|
|-------------------------------------------------||-------------------|
|-------------------------------------------------||-------------------|


   +H.       +E   S  S    E  E  E  Q   Q   E    +H.       +E   S  S
|--(0)-------(0)--0--0-|--0--0--0--0---0---0-|--(0)-------(0)--0--0----|
|--(0)-------(0)--0--0-|--0--0--0--0---0---0-|--(0)-------(0)--0--0----|
|-(13)------(13)-13-13-|-13-13-13-13--13--13-|-(13)------(13)-10-10----|
|----------------------|---------------------|-------------------------|
|-(11)------(11)-11-11-|-11-11-11-11--11--11-|-(11)------(11)--8--8----|
|--(0)-------(0)--0--0-|--0--0--0--0---0---0-|--(0)-------(0)--0--0----|
|
|   W                     W                      W
|----------------------|---------------------|-------------------------|
|----------------------|---------------------|-------------------------|
|----------------------|---------------------|-------------------------|
|----------------------|---------------------|-------------------------|
|----------------------|---------------------|-------------------------|
|----------------------|---------------------|-------------------------|


                          To Dbl. Coda
   E  E  E  Q   Q  E   +H     Q.    S  S
|--0--0--0--0---0--0-|-(0)----0-----0--0-|
|--0--0--0--0---0--0-|-(0)----0-----0--0-|
|-10-10-10-10--10--7-|-(7)----6----10-10-|
|--------------------|-------------------|
|--8--8--8--8---8--5-|-(5)----4-----8--8-|
|--0--0--0--0---0--0-|-(0)----0-----0--0-|


   E  E  E  Q  Q   E    +H.       +E   S  S
|--0--0--0--0--0---0-|--(0)-------(0)--0--0-|
|--0--0--0--0--0---0-|--(0)-------(0)--0--0-|
|-10-10-10-10--9--13-|-(13)------(13)-13-13-|
|--------------------|----------------------|
|--8--8--8--8--7--11-|-(11)------(11)-11-11-|
|--0--0--0--0--0---0-|--(0)-------(0)--0--0-|


   E  E  E  Q   Q   E    +H.       +E   S  S
|--0--0--0--0---0---0-|--(0)-------(0)--0--0-|
|--0--0--0--0---0---0-|--(0)-------(0)--0--0-|
|-13-13-13-13--13--13-|-(13)------(13)-13-13-|
|---------------------|----------------------|
|-11-11-11-11--11--11-|-(11)------(11)-11-11-|
|--0--0--0--0---0---0-|--(0)-------(0)--0--0-|


   E  E  E  Q   Q   E    +H.       +E   S  S    E  E  E  Q   Q  E
|--0--0--0--0---0---0-|--(0)-------(0)--0--0-|--0--0--0--0---0--0--|
|--0--0--0--0---0---0-|--(0)-------(0)--0--0-|--0--0--0--0---0--0--|
|-13-13-13-13--13--13-|-(13)------(13)-10-10-|-10-10-10-10--10--7--|
|---------------------|----------------------|---------------------|
|-11-11-11-11--11--11-|-(11)------(11)--8--8-|--8--8--8--8---8--5--|
|--0--0--0--0---0---0-|--(0)-------(0)--0--0-|--0--0--0--0---0--0--|


                                                          Gtrs IV, V
  +H     Q.    S  S    E  E  E  Q  Q   E    +H.       +E    S  S
|-(0)----0-----0--0-|--0--0--0--0--0---0-|--(0)-------(0)--------|
|-(0)----0-----0--0-|--0--0--0--0--0---0-|--(0)-------(0)--------|
|-(7)----6----10-10-|-10-10-10-10--9--13-|-(13)------(13)-/13-13-|
|-------------------|--------------------|-----------------------|
|-(5)----4-----8--8-|--8--8--8--8--7--11-|-(11)------(11)-/11-11-|
|-(0)----0-----0--0-|--0--0--0--0--0---0-|--(0)-------(0)---0--0-|


     Q   E    Q      Q      E    +H.                   +E   S  S
||----------------------------|----------------------------------|
||o---------------------------|----------------------------------|
||--13--13---13-----13-----13-|-(13)------------------(13)-13-13-|
||----------------------------|----------------------------------|
||o-11--11---11-----11-----11-|-(11)------------------(11)-11-11-|
||---0---0----0------0------0-|--(0)-------------------(0)--0--0-|
|
|   Gtr III
|    PM-----------------------------------------------------------
|    q   S S  S S e  S S q        q   S S S S S S S S   q
||----------------------------|----------------------------------|
||o---------------------------|----------------------------------|
||----------------------------|----------------------------------|
||----------------------------|----------------------------------|
||o--7---7-7--7-7-7--7-7-7----|---7---7-7-7-7-7-7-7-7---7--------|
||----------------------------|----------------------------------|


   E    E    E  Q      Q    E    +H.                   +E     S  S
|-----------------------------|--------------------------------------|
|-----------------------------|--------------------------------------|
|-13---13---13-13-----13---13-|-(13)------------------(13)---10-10---|
|-----------------------------|--------------------------------------|
|-11---11---11-11-----11---11-|-(11)------------------(11)----8--8---|
|--0----0----0--0------0----0-|--(0)-------------------(0)----0--0---|
|
|---------------------------------------------------------------|
|  S S  S S  e  S S q    q        S  S S S S S S S q    S  S  S  S
|-----------------------------|--------------------------------------|
|-----------------------------|--------------------------------------|
|-----------------------------|--------------------------------------|
|-----------------------------|--------------------------------------|
|--7-7--7-7--7--7-7-7----7----|---7--7-7-7-7-7-7-7-7----7--7--7--7---|
|-----------------------------|--------------------------------------|


   E  E    E  Q    Q     E     +H           Q.          S  S
|----------------------------|-------------------------------|
|----------------------------|-------------------------------|
|-10-10---10-10---10-----7---|-(7)----------6----------10-10-|
|----------------------------|-------------------------------|
|--8--8----8--8----8-----5---|-(5)----------4-----------8--8-|
|--0--0----0--0----0-----0---|-(0)----------0-----------0--0-|
|
|  PM---------------------------------------------------------
|  e  S S  q    q    S S S S    S  S S S q  S  S S S e  S  S
|----------------------------|-------------------------------|
|----------------------------|-------------------------------|
|----------------------------|-------------------------------|
|----------------------------|-------------------------------|
|--7--7-7--7----7----7-7-7-7-|--7--7-7-7-7--7--7-7-7-7--7--7-|
|----------------------------|-------------------------------|


                            1.                                 2.
                                                                 D.S.S. al Dbl. Coda
   E  E  E  Q   Q      E      +H.                 +E   S  S      +W
|--------------------------|---------------------------------||--------------------------|
|--------------------------|--------------------------------o||--------------------------|
|-10-10-10-10---9-----13---|-(13)----------------(13)-13-13--||-(13)---------------------|
|--------------------------|---------------------------------||--------------------------|
|--8--8--8--8---7-----11---|-(11)----------------(11)-11-11-o||-(11)---------------------|
|--0--0--0--0---0------0---|--(0)-----------------(0)--0--0--||--(0)---------------------|
|
|-----------------------------------------------------------------------------------|
|  q     q    E S S E  S S     q   S S S S e S S   q              q   S S S S e S S q
|--------------------------|---------------------------------||--------------------------|
|--------------------------|--------------------------------o||--------------------------|
|--------------------------|---------------------------------||--------------------------|
|--------------------------|---------------------------------||--------------------------|
|--7-----7----7-7-7-7--7-7-|---7---7-7-7-7-7-7-7---7--------o||---7---7-7-7-7-7-7-7-7----|
|--------------------------|---------------------------------||--------------------------|


                                                Outro
  &&
  Gtrs II, V                          Gtrs IV, V
   E  E  E  Q  Q   E    +H.       +E    S  S      Q   E    Q      Q      E
|--0--0--0--0--0---0-|--(0)-------(0)--------||----------------------------|
|--0--0--0--0--0---0-|--(0)-------(0)--------||o---------------------------|
|-10-10-10-10--9--13-|-(13)------(13)-/13-13-||--13--13---13-----13-----13-|
|--------------------|-----------------------||----------------------------|
|--8--8--8--8--7--11-|-(11)------(11)-/11-11-||o-11--11---11-----11-----11-|
|--0--0--0--0--0---0-|--(0)-------(0)---0--0-||---0---0----0------0------0-|
|
|                                                 PM------------------------
|  W                     W                        q   S S  S S e  S S q
|--------------------|-----------------------||----------------------------|
|--------------------|-----------------------||o---------------------------|
|--------------------|-----------------------||----------------------------|
|--------------------|-----------------------||----------------------------|
|--------------------|-----------------------||o--7---7-7--7-7-7--7-7-7----|
|--------------------|-----------------------||----------------------------|


   +H.                   +E   S  S    E    E    E  Q      Q    E
|----------------------------------|--------------------------------|
|----------------------------------|--------------------------------|
|-(13)------------------(13)-13-13-|-13---13---13-13-----13---13----|
|----------------------------------|--------------------------------|
|-(11)------------------(11)-11-11-|-11---11---11-11-----11---11----|
|--(0)-------------------(0)--0--0-|--0----0----0--0------0----0----|
|
|-----------------------------------------------------------|
|   q   S S S S S S S S   q           S S  S S  e  S S q    q
|----------------------------------|--------------------------------|
|----------------------------------|--------------------------------|
|----------------------------------|--------------------------------|
|----------------------------------|--------------------------------|
|---7---7-7-7-7-7-7-7-7---7--------|--7-7--7-7--7--7-7-7----7-------|
|----------------------------------|--------------------------------|


   +H.                   +E     S  S    E  E    E  Q    Q     E     +H           Q.          S  S
|------------------------------------|----------------------------|-------------------------------|
|------------------------------------|----------------------------|-------------------------------|
|-(13)------------------(13)---10-10-|-10-10---10-10---10-----7---|-(7)----------6----------10-10-|
|------------------------------------|----------------------------|-------------------------------|
|-(11)------------------(11)----8--8-|--8--8----8--8----8-----5---|-(5)----------4-----------8--8-|
|--(0)-------------------(0)----0--0-|--0--0----0--0----0-----0---|-(0)----------0-----------0--0-|
|
|   PM---------------------------------------------------------------------------------------------
|   S  S S S S S S S q    S  S  S  S    e  S S  q    q    S S S S    S  S S S q  S  S S S e  S  S
|------------------------------------|----------------------------|-------------------------------|
|------------------------------------|----------------------------|-------------------------------|
|------------------------------------|----------------------------|-------------------------------|
|------------------------------------|----------------------------|-------------------------------|
|---7--7-7-7-7-7-7-7-7----7--7--7--7-|--7--7-7--7----7----7-7-7-7-|--7--7-7-7-7--7--7-7-7-7--7--7-|
|------------------------------------|----------------------------|-------------------------------|


                            1.,2.                              3.
   E  E  E  Q   Q      E      +H.                 +E   S  S  3x  +W
|--------------------------|---------------------------------||--------------------------|
|--------------------------|--------------------------------o||--------------------------|
|-10-10-10-10---9-----13---|-(13)----------------(13)-13-13--||-(13)---------------------|
|--------------------------|---------------------------------||--------------------------|
|--8--8--8--8---7-----11---|-(11)----------------(11)-11-11-o||-(11)---------------------|
|--0--0--0--0---0------0---|--(0)-----------------(0)--0--0--||--(0)---------------------|
|
|-----------------------------------------------------------------------------------|
|  q     q    E S S E  S S     q   S S S S e S S   q         3x   q   S S S S e S S q
|--------------------------|---------------------------------||--------------------------|
|--------------------------|--------------------------------o||--------------------------|
|--------------------------|---------------------------------||--------------------------|
|--------------------------|---------------------------------||--------------------------|
|--7-----7----7-7-7-7--7-7-|---7---7-7-7-7-7-7-7---7--------o||---7---7-7-7-7-7-7-7-7----|
|--------------------------|---------------------------------||--------------------------|


   +W            +W            +W
|-------------|-------------|-------------|
|-------------|-------------|-------------|
|-(13)--------|-(13)--------|-(13)--------|
|-------------|-------------|-------------|
|-(11)--------|-(11)--------|-(11)--------|
|--(0)--------|--(0)--------|--(0)--------|


   +W            +W            +W            +W
|-------------|-------------|-------------|---------*|
|-------------|-------------|-------------|---------*|
|-(13)--------|-(13)--------|-(13)--------|-(13)----*|
|-------------|-------------|-------------|---------*|
|-(11)--------|-(11)--------|-(11)--------|-(11)----*|
|--(0)--------|--(0)--------|--(0)--------|--(0)----*|



Duration Legend
---------------
W - whole; H - half; Q - quarter; E - 8th; S - 16th; T - 32nd; X - 64th; a - acciaccatura
+ - note tied to previous; . - note dotted; .. - note double dotted
Uncapitalized letters represent notes that are staccato (1/2 duration)
Irregular groupings are notated above the duration line
Duration letters will always appear directly above the note/fret number it represents the
duration for.  Duration letters with no fret number below them represent rests.  Multi-
bar rests are notated in the form Wxn, where n is the number of bars to rest for.  Low
melody durations appear below the staff

Tablature Legend
----------------
 h   - hammer-on
 p   - pull-off
 b   - bend
 pb  - pre-bend
 r   - bend release (if no number after the r, then release immediately)
 /\  - slide into or out of (from/to "nowhere")
 s   - legato slide
 S   - shift slide
 - natural harmonic
[n]  - artificial harmonic
n(n) - tapped harmonic
 ~   - vibrato
 tr  - trill
 T   - tap
 TP  - trem. picking
 PM  - palm muting
\n/  - tremolo bar dip; n = amount to dip
 \n  - tremolo bar down
 n/  - tremolo bar up
/n\  - tremolo bar inverted dip
 =   - hold bend; also acts as connecting device for hammers/pulls
 <> - volume swell (louder/softer)
 x   - on rhythm slash represents muted slash
 o   - on rhythm slash represents single note slash

Misc Legend
-----------
 |  - bar
||  - double bar
||o - repeat start
o|| - repeat end
*|  - double bar (ending)
 :  - bar (freetime)
 $  - Segno
 &  - Coda
Tempo markers -  = BPM(8/16=s8/s16), where s8 = swing 8ths, s16 = swing 16ths

Добавлено: 29.06.2012
Другие материалы по этой песне:

Страница создана 24.04.2012
http://primanota.ru/enslaved/ruun-chords.htm
Привет, Гость.
Предлагаем пройти революционный курс по гитаре.
Подарок от PrimaNota.Ru, забирай!