PrimaNota.ru - самый крупный в мире бесплатный архив песенных текстов, аккордов, табулатур и нот


Enslaved - Return To Yggdrasill - таба, видео

Регистрация Запомнить меня
Войти через:  Facebook Google Twitter Vk Yandex Mail.ru

Enslaved - Return To Yggdrasill - таба, видео

Печатать
Просмотров: 115
         RETURN TO YGGDRASILL
                             As recorded by Enslaved
                            (From the 2004 Album ISA)

Tuning: Drop D


Tablature Legend
----------------
 h   - hammer-on
 p   - pull-off
 b   - bend
 pb  - pre-bend
 r   - bend release (if no number after the r, then release immediately)
 /\  - slide into or out of (from/to "nowhere")
 s   - legato slide
 S   - shift slide
  - natural harmonic
[n]  - artificial harmonic
n(n) - tapped harmonic
 ~   - vibrato
 tr  - trill
 T   - tap
 TP  - trem. picking
 PM  - palm muting
\n/  - tremolo bar dip; n = amount to dip
 \n  - tremolo bar down
 n/  - tremolo bar up
/n\  - tremolo bar inverted dip
 =   - hold bend; also acts as connecting device for hammers/pulls
 <>  - volume swell (louder/softer)
 x   - on rhythm slash represents muted slash
 o   - on rhythm slash represents single note slash

Transcribed by Stephen Trepak

    Q=70
   4/4
    Gtrs I, II
          ~       ~
||------------------------|-----------------------|
||o-----------------------|-----------------------|
||--------5---------------|-----------------------|
||--7h8-----7h8---7-7h8---|-3-3-------------1-0-0-|
||o-7h8-0---7h8-0---7h8-0-|-1-1-1-0-0-1-0-0-1-0-0-|
||--7h8-0---7h8-0---7h8-0-|-1-1-1-0-0-1-0-0-1-0-0-|


        ~       ~
|-----------------------|--------------------------||
|-----------------------|-------------------------o||
|-------5---------------|--------------------------||
|-7h8-----7h8---7-7h8---|-3-3-------------/7-7-7---||
|-7h8-0---7h8-0---7h8-0-|-1-1-1-0-0-1-0-0-/5-5-5--o||
|-7h8-0---7h8-0---7h8-0-|-1-1-1-0-0-1-0-0-/5-5-5---||


   7/8
    Gtr IV
||--------------------------------|------------------------------------|
||o-------------------------------|------------------------------------|
||----------0---------------0-----|----------9-----------------9-------|
||------3-----3---------3-----3---|-----10-----10---------10-----10----|
||o---0---0-----0----0----0-----0-|---0----0------0----0-----0------0--|
||--0-------------0---------------|-0---------------0------------------|
|
|   Gtrs I, II
||--------------------------------|------------------------------------|
||o-------------------------------|------------------------------------|
||--------------------------------|------------------------------------|
||--0---------------(0)-----------|-0-----------------(0)--------------|
||o-0---------------(0)-----------|-0-----------------(0)--------------|
||--0---------------(0)-----------|-0-----------------(0)--------------|


  1.
|---------------------------------------|--------------------------------||
|---------------------------------------|-------------------------------o||
|-----------10------------------10------|---------7---------------7------||
|------10------10----------10------10---|-----7-----7---------7-----7----||
|----8----8-------8-----8-----8-------8-|---5---5-----5----5----5-----5-o||
|--8----------------8-------------------|-5-------------5----------------||
|
|---------------------------------------|--------------------------------||
|---------------------------------------|-------------------------------o||
|---------------------------------------|--------------------------------||
|-10------------------(10)--------------|-7---------------(7)------------||
|--8-------------------(8)--------------|-5---------------(5)-----------o||
|--8-------------------(8)--------------|-5---------------(5)------------||


  2.
|-------------------------------|-------------------------------|
|-------------------------------|-------------------------------|
|---------7---------------7-----|---------2---------------2-----|
|-----7-----7---------7-----7---|-----3-----3---------3-----3---|
|---5---5-----5----5----5-----5-|---0---0-----0----0----0-----0-|
|-5-------------5---------------|-3-------------3---------------|
|
|-------------------------------|-------------------------------|
|-------------------------------|-------------------------------|
|-------------------------------|-------------------------------|
|-7---------------(7)-----------|-3---------------(3)-----------|
|-5---------------(5)-----------|-3---------------(3)-----------|
|-5---------------(5)-----------|-3---------------(3)-----------|


    Gtrs I, II, IV
                                                                       4x
||----------------------------------|----------------------------------||
||o---------------------------------|---------------------------------o||
||------------0---------------0-----|-----------2---------------2------||
||--------4-----4---------4-----4---|-------3-----3---------3-----3----||
||o----5----5-----5----5----5-----5-|----0----0-----0----0----0-----0-o||
||--0-(0)-----------0-(0)-----------|-0-(0)-----------0-(0)------------||


||----------------------------------|----------------------------------||
||o---------------------------------|-----------5---------------7-----o||
||------------3---------------2-----|-------6-----6---------6-----6----||
||--------4-----4---------4-----4---|----0----0-----0----0----0-----0--||
||o----5----5-----5----5----5-----5-|---------------------------------o||
||--0-(0)-----------0-(0)-----------|-0-(0)-----------0-(0)------------||


||----------------------------------|----------------------------------||
||o---------------------------------|---------------------------------o||
||------------0---------------0-----|-----------2---------------2------||
||--------4-----4---------4-----4---|-------3-----3---------3-----3----||
||o----5----5-----5----5----5-----5-|----0----0-----0----0----0-----0-o||
||--0-(0)-----------0-(0)-----------|-0-(0)-----------0-(0)------------||


||----------------------------------|----------------------------------||
||o---------------------------------|-----------5---------------7-----o||
||------------3---------------2-----|-------6-----6---------6-----6----||
||--------4-----4---------4-----4---|----0----0-----0----0----0-----0--||
||o----5----5-----5----5----5-----5-|---------------------------------o||
||--0-(0)-----------0-(0)-----------|-0-(0)-----------0-(0)------------||


    Gtr IV
||--------------------------------|-----------------------------------|
||o-------------------------------|-----------------------------------|
||----------0---------------0-----|----------9-----------------9------|
||------3-----3---------3-----3---|-----10-----10---------10-----10---|
||o---0---0-----0----0----0-----0-|---0----0------0----0-----0------0-|
||--0-------------0---------------|-0---------------0-----------------|
|
|   Gtrs I, II
||--------------------------------|-----------------------------------|
||o-------------------------------|-----------------------------------|
||--------------------------------|-----------------------------------|
||--0---------------(0)-----------|-0-----------------(0)-------------|
||o-0---------------(0)-----------|-0-----------------(0)-------------|
||--0---------------(0)-----------|-0-----------------(0)-------------|


  1.
|---------------------------------------|--------------------------------||
|---------------------------------------|-------------------------------o||
|-----------10------------------10------|---------7---------------7------||
|------10------10----------10------10---|-----7-----7---------7-----7----||
|----8----8-------8-----8-----8-------8-|---5---5-----5----5----5-----5-o||
|--8----------------8-------------------|-5-------------5----------------||
|
|---------------------------------------|--------------------------------||
|---------------------------------------|-------------------------------o||
|---------------------------------------|--------------------------------||
|-10------------------(10)--------------|-7---------------(7)------------||
|--8-------------------(8)--------------|-5---------------(5)-----------o||
|--8-------------------(8)--------------|-5---------------(5)------------||


  2.
|-------------------------------|-------------------------------|
|-------------------------------|-------------------------------|
|---------7---------------7-----|---------2---------------2-----|
|-----7-----7---------7-----7---|-----3-----3---------3-----3---|
|---5---5-----5----5----5-----5-|---0---0-----0----0----0-----0-|
|-5-------------5---------------|-3-------------3---------------|
|
|-------------------------------|-------------------------------|
|-------------------------------|-------------------------------|
|-------------------------------|-------------------------------|
|-7---------------(7)-----------|-3---------------(3)-----------|
|-5---------------(5)-----------|-3---------------(3)-----------|
|-5---------------(5)-----------|-3---------------(3)-----------|


||--------------------------------|-----------------------------------|
||o-------------------------------|-----------------------------------|
||----------0---------------0-----|----------9-----------------9------|
||------3-----3---------3-----3---|-----10-----10---------10-----10---|
||o---0---0-----0----0----0-----0-|---0----0------0----0-----0------0-|
||--0-------------0---------------|-0---------------0-----------------|
|
||--------------------------------|-----------------------------------|
||o-------------------------------|-----------------------------------|
||--------------------------------|-----------------------------------|
||--0---------------(0)-----------|-0-----------------(0)-------------|
||o-0---------------(0)-----------|-0-----------------(0)-------------|
||--0---------------(0)-----------|-0-----------------(0)-------------|


  1.
|---------------------------------------|--------------------------------||
|---------------------------------------|-------------------------------o||
|-----------10------------------10------|---------7---------------7------||
|------10------10----------10------10---|-----7-----7---------7-----7----||
|----8----8-------8-----8-----8-------8-|---5---5-----5----5----5-----5-o||
|--8----------------8-------------------|-5-------------5----------------||
|
|---------------------------------------|--------------------------------||
|---------------------------------------|-------------------------------o||
|---------------------------------------|--------------------------------||
|-10------------------(10)--------------|-7---------------(7)------------||
|--8-------------------(8)--------------|-5---------------(5)-----------o||
|--8-------------------(8)--------------|-5---------------(5)------------||


  2.
|-------------------------------|-------------------------------|
|-------------------------------|-------------------------------|
|---------7---------------7-----|---------2---------------2-----|
|-----7-----7---------7-----7---|-----3-----3---------3-----3---|
|---5---5-----5----5----5-----5-|---0---0-----0----0----0-----0-|
|-5-------------5---------------|-3-------------3---------------|
|
|-------------------------------|-------------------------------|
|-------------------------------|-------------------------------|
|-------------------------------|-------------------------------|
|-7---------------(7)-----------|-3---------------(3)-----------|
|-5---------------(5)-----------|-3---------------(3)-----------|
|-5---------------(5)-----------|-3---------------(3)-----------|


   4/4
    Gtrs I, II
          ~       ~
||------------------------|-----------------------|
||o-----------------------|-----------------------|
||--------5---------------|-----------------------|
||--7h8-----7h8---7-7h8---|-3-3-------------1-0-0-|
||o-7h8-0---7h8-0---7h8-0-|-1-1-1-0-0-1-0-0-1-0-0-|
||--7h8-0---7h8-0---7h8-0-|-1-1-1-0-0-1-0-0-1-0-0-|


        ~       ~
|-----------------------|--------------------------||
|-----------------------|-------------------------o||
|-------5---------------|--------------------------||
|-7h8-----7h8---7-7h8---|-3-3-------------/7-7-7---||
|-7h8-0---7h8-0---7h8-0-|-1-1-1-0-0-1-0-0-/5-5-5--o||
|-7h8-0---7h8-0---7h8-0-|-1-1-1-0-0-1-0-0-/5-5-5---||


    Gtr IV
||--^0---------------------------------------|
||o-^3---------------------------------------|
||--^2---------------------------------------|
||--^0---------------------------------------|
||o-^0---------------------------------------|
||--^0---------------------------------------|
|
|   Gtrs I, II
||----------5-------5-------5----------------|
||o---------6-------6-------6----------------|
||----------7--(7)--7--(7)--7--7-7-7-7-7-7-7-|
||---0-0-0--7---7---7---7---7--7-7-7-7-7-7-7-|
||o--0-0-0-(0)--0--(0)--0--(0)-0-0-0-0-0-0-0-|
||---0-0-0------0-------0------0-0-0-0-0-0-0-|


|-^0---------------------------------------|
|-^3---------------------------------------|
|-^2---------------------------------------|
|-^0---------------------------------------|
|-^0---------------------------------------|
|-^0---------------------------------------|
|
|---------5-------5-------5----------------|
|---------5-------5-------5----------------|
|---------7--(7)--7--(7)--7--7-7-7-7-7-7-7-|
|--0-0-0--7---7---7---7---7--7-7-7-7-7-7-7-|
|--0-0-0-(0)--0--(0)--0--(0)-0-0-0-0-0-0-0-|
|--0-0-0------0-------0------0-0-0-0-0-0-0-|


|-^0---------------------------------------|
|-^3---------------------------------------|
|-^2---------------------------------------|
|-^0---------------------------------------|
|-^0---------------------------------------|
|-^0---------------------------------------|
|
|---------5-------5-------5----------------|
|---------6-------6-------6----------------|
|---------7--(7)--7--(7)--7--7-7-7-7-7-7-7-|
|--0-0-0--7---7---7---7---7--7-7-7-7-7-7-7-|
|--0-0-0-(0)--0--(0)--0--(0)-0-0-0-0-0-0-0-|
|--0-0-0------0-------0------0-0-0-0-0-0-0-|


|-^0-----------------------------------------||
|-^3----------------------------------------o||
|-^2-----------------------------------------||
|-^0-----------------------------------------||
|-^0----------------------------------------o||
|-^0-----------------------------------------||
|
|---------0-------0-------0------------------||
|---------5-------5-------5-----------------o||
|---------7--(7)--7--(7)--7--7-7-7-7-7-7-7---||
|--0-0-0--7---7---7---7---7--7-7-7-7-7-7-7---||
|--0-0-0-(0)--0--(0)--0--(0)-0-0-0-0-0-0-0--o||
|--0-0-0------0-------0------0-0-0-0-0-0-0---||


   7/8
||--------------------------------|------------------------------------|
||o-------------------------------|------------------------------------|
||----------0---------------0-----|----------9-----------------9-------|
||------3-----3---------3-----3---|-----10-----10---------10-----10----|
||o---0---0-----0----0----0-----0-|---0----0------0----0-----0------0--|
||--0-------------0---------------|-0---------------0------------------|
|
||--------------------------------|------------------------------------|
||o-------------------------------|------------------------------------|
||--------------------------------|------------------------------------|
||--0---------------(0)-----------|-0-----------------(0)--------------|
||o-0---------------(0)-----------|-0-----------------(0)--------------|
||--0---------------(0)-----------|-0-----------------(0)--------------|


  1.
|---------------------------------------|--------------------------------||
|---------------------------------------|-------------------------------o||
|-----------10------------------10------|---------7---------------7------||
|------10------10----------10------10---|-----7-----7---------7-----7----||
|----8----8-------8-----8-----8-------8-|---5---5-----5----5----5-----5-o||
|--8----------------8-------------------|-5-------------5----------------||
|
|---------------------------------------|--------------------------------||
|---------------------------------------|-------------------------------o||
|---------------------------------------|--------------------------------||
|-10------------------(10)--------------|-7---------------(7)------------||
|--8-------------------(8)--------------|-5---------------(5)-----------o||
|--8-------------------(8)--------------|-5---------------(5)------------||


  2.
|-------------------------------|-------------------------------|
|-------------------------------|-------------------------------|
|---------7---------------7-----|---------2---------------2-----|
|-----7-----7---------7-----7---|-----3-----3---------3-----3---|
|---5---5-----5----5----5-----5-|---0---0-----0----0----0-----0-|
|-5-------------5---------------|-3-------------3---------------|
|
|-------------------------------|-------------------------------|
|-------------------------------|-------------------------------|
|-------------------------------|-------------------------------|
|-7---------------(7)-----------|-3---------------(3)-----------|
|-5---------------(5)-----------|-3---------------(3)-----------|
|-5---------------(5)-----------|-3---------------(3)-----------|


   4/4
    Gtrs I, II
          ~       ~
||------------------------|-----------------------|
||o-----------------------|-----------------------|
||--------5---------------|-----------------------|
||--7h8-----7h8---7-7h8---|-3-3-------------1-0-0-|
||o-7h8-0---7h8-0---7h8-0-|-1-1-1-0-0-1-0-0-1-0-0-|
||--7h8-0---7h8-0---7h8-0-|-1-1-1-0-0-1-0-0-1-0-0-|


        ~       ~
|-----------------------|--------------------------||
|-----------------------|-------------------------o||
|-------5---------------|--------------------------||
|-7h8-----7h8---7-7h8---|-3-3-------------/7-7-7---||
|-7h8-0---7h8-0---7h8-0-|-1-1-1-0-0-1-0-0-/5-5-5--o||
|-7h8-0---7h8-0---7h8-0-|-1-1-1-0-0-1-0-0-/5-5-5---||


    Gtr IV
||--^0---------------------------------------|
||o-^3---------------------------------------|
||--^2---------------------------------------|
||--^0---------------------------------------|
||o-^0---------------------------------------|
||--^0---------------------------------------|
|
|   Gtrs I, II
||----------5-------5-------5----------------|
||o---------6-------6-------6----------------|
||----------7--(7)--7--(7)--7--7-7-7-7-7-7-7-|
||---0-0-0--7---7---7---7---7--7-7-7-7-7-7-7-|
||o--0-0-0-(0)--0--(0)--0--(0)-0-0-0-0-0-0-0-|
||---0-0-0------0-------0------0-0-0-0-0-0-0-|


|-^0---------------------------------------|
|-^3---------------------------------------|
|-^2---------------------------------------|
|-^0---------------------------------------|
|-^0---------------------------------------|
|-^0---------------------------------------|
|
|---------5-------5-------5----------------|
|---------5-------5-------5----------------|
|---------7--(7)--7--(7)--7--7-7-7-7-7-7-7-|
|--0-0-0--7---7---7---7---7--7-7-7-7-7-7-7-|
|--0-0-0-(0)--0--(0)--0--(0)-0-0-0-0-0-0-0-|
|--0-0-0------0-------0------0-0-0-0-0-0-0-|


|-^0---------------------------------------|
|-^3---------------------------------------|
|-^2---------------------------------------|
|-^0---------------------------------------|
|-^0---------------------------------------|
|-^0---------------------------------------|
|
|---------5-------5-------5----------------|
|---------6-------6-------6----------------|
|---------7--(7)--7--(7)--7--7-7-7-7-7-7-7-|
|--0-0-0--7---7---7---7---7--7-7-7-7-7-7-7-|
|--0-0-0-(0)--0--(0)--0--(0)-0-0-0-0-0-0-0-|
|--0-0-0------0-------0------0-0-0-0-0-0-0-|


                                             4x
|-^0-----------------------------------------||
|-^3----------------------------------------o||
|-^2-----------------------------------------||
|-^0-----------------------------------------||
|-^0----------------------------------------o||
|-^0-----------------------------------------||
|
|                                            4x
|---------0-------0-------0------------------||
|---------5-------5-------5-----------------o||
|---------7--(7)--7--(7)--7--7-7-7-7-7-7-7---||
|--0-0-0--7---7---7---7---7--7-7-7-7-7-7-7---||
|--0-0-0-(0)--0--(0)--0--(0)-0-0-0-0-0-0-0--o||
|--0-0-0------0-------0------0-0-0-0-0-0-0---||
Добавлено: 06.06.2012
Другие материалы по этой песне:

Страница создана 06.06.2012
http://primanota.ru/enslaved/return-to-yggdrasill-chords.htm
Привет, Гость.
Предлагаем пройти революционный курс по гитаре.
Подарок от PrimaNota.Ru, забирай!