PrimaNota.ru - самый крупный в мире бесплатный архив песенных текстов, аккордов, табулатур и нот


Enslaved - Path To Vanir - текст песни, таба, видео

Регистрация Запомнить меня
Войти через:  Facebook Google Twitter Vk Yandex Mail.ru

Enslaved - Path To Vanir - текст песни, таба, видео

Печатать
Просмотров: 218
Уроки эстрадного вокала в Санкт-Петербурге
Авторы музыки: Ivar Peersen
Авторы текста: Kjetil Grutle
Enslaved - Path To Vanir Full Tab

My Guitar cover (could be handy):
http://www.youtube.com/watch?v=-VnsezIDbo4


b= bend  v= vibrato  h= hammer-on  p= pull-off  / = slide up  \ = slide down


main riff: Played 4times @0:15 , 2 times @1:16 and 4times @2:02 in my cover

E-------------------------------------------------------------------------|
B-------------------------------------------------------------------------|
G-------------------------------------------------------------------------|
D--0-0-10--9-7-6---0-0-10-0-12-12-12-12-0-0-10--9-7-6---0-0-10--0-12-0-14-|
A--0-0-8---7-5-4-7-0-0-8--0-10-10-10-10-0-0-8---7-5-4-7-0-0-8---0-10-0-12-|
E----------------5------------------------------------5-------------------|



Second Riff: Played 2times @0:45 , @1:31 and @ 4:02

E------------------------------------------------------------------|
B------------------------------------------------------------------|
G------------------------------------------------------------------|
D--0-0-0-0-0-0-0-0-0-0-0-0-0-0-0-0-2-2-2-2-2-2-2-2-0-0-0-0-0-0-0-0-|
A--0-0-0-0-0-0-0-0-0-0-0-0-0-0-0-0-2-2-2-2-2-2-2-2-0-0-0-0-0-0-0-0-|
E------------------------------------------------------------------|


E------------------------------------------------------------------|
B------------------------------------------------------------------|
G------------------------------------------------------------------|
D--3-3-3-3-3-3-3-3-3-3-3-3-3-3-3-3-2-2-2-2-2-2-2-2-3-3-3-3-3-3-3-3-|
A--3-3-3-3-3-3-3-3-3-3-3-3-3-3-3-3-2-2-2-2-2-2-2-2-3-3-3-3-3-3-3-3-|
E------------------------------------------------------------------|


E------------------------------------------------------------------|
B------------------------------------------------------------------|
G------------------------------------------------------------------|
D--6-6-6-6-6-6-6-6-6-6-6-6-6-6-6-6-6-6-6-6-6-6-6-6-7-7-7-7-7-7-7-7-|
A--6-6-6-6-6-6-6-6-6-6-6-6-6-6-6-6-6-6-6-6-6-6-6-6-7-7-7-7-7-7-7-7-|
E------------------------------------------------------------------|


E--------------------------------------|
B--------------------------------------|
G--------------------------------------|
D--11-11-11-11-11-11-11-11-11-11-11-11-|
A--11-11-11-11-11-11-11-11-11-11-11-11-|
E--------------------------------------|


E----------------------------------------------------------------|
B----------------------------------------------------------------|
G----------------------------------------------------------------|
D--11-11-11-11-11-11-11-11-11-11-11-11-12-12-12-12-12-12-12-12\2-|
A--11-11-11-11-11-11-11-11-11-11-11-11-12-12-12-12-12-12-12-12\2-|
E----------------------------------------------------------------|



The solo @2:33

E--------------------------------------------------------------------|
B------------------------8-10-11-10-----------------------8-10-11-10-|
G----10-9-7-6---6-7-9-10--------------10-9-7-6---6-7-9-10------------|
D--7----------7---------------------7----------7---------------------|
A--------------------------------------------------------------------|
E--------------------------------------------------------------------|


E----------10-9----9-10-12-13---------|
B--10-10-8------10------------14-15\3-|
G-------------------------------------|
D-------------------------------------|
A-------------------------------------|
E-------------------------------------|



The clean part starts @2:45 and i started playing it @2:47 (skipped 2 chords)

E---------------------------------------------------|
B----------------------------------12---------------|
G--12-12-12-12-11-11-11-11-9-9-9-9---12-11-11-11-11-|
D--12-12-12-12-11-11-11-11-9-9-9-9------11-11-11-11-|    X2 !
A--10-10-10-10-9--9--9--9--7-7-7-7------9--9--9--9--|
E---------------------------------------------------|


E--------------------------------------------------------------------|
B---------------------------------------------12-12------------------|
G--12-12-----12----12--11---11---11---9-----9-------12--11---11---11-|
D--12---12-----12--------11---11--------9-----------------11---11----|
A--10-----10-----10---9----9----9---7-----7------------9----9----9---|
E--------------------------------------------------------------------|


E---------------------------------------------------------|
B---------------------------------------------12-12-------|
G--12-12-----12----12--11---11---11---9-----9-------12-11-|
D--12---12-----12--------11---11--------9--------------11-|
A--10-----10-----10---9----9----9---7-----7------------9--|
E---------------------------------------------------------|



The Doom part (@3:36-->4:02) :)

E------------------------------------------|
B------------------------------------------|
G------------------------------------------|
D--0---2--0--3---2--3--6---7--11---12-12\2-|
A--0---2--0--3---2--3--6---7--11---12-12\2-|
E------------------------------------------|

Hope u liked the tabs! ;)
Добавлено: 17.03.2012
Другие материалы по этой песне:

Страница создана 17.03.2012
http://primanota.ru/enslaved/path-to-vanir-chords.htm
Привет, Гость.
Предлагаем пройти революционный курс по гитаре.
Подарок от PrimaNota.Ru, забирай!