PrimaNota.ru - самый крупный в мире бесплатный архив песенных текстов, аккордов, табулатур и нот


Enslaved - Havenless - текст песни, таба, бас-таба, видео

Регистрация Запомнить меня
Войти через:  Facebook Google Twitter Vk Yandex Mail.ru

Enslaved - Havenless - текст песни, таба, бас-таба, видео

Печатать
Просмотров: 257
Авторы музыки: Ivar Peersen
Авторы текста: Ivar Peersen
As recorded by Enslaved
(From the 2003 Album BELOW THE LIGHTS)

Transcribed by David Letersky
        

Words and Music by Ivar Peersen

Gtr I (C# G# C# F# A# C#) - 'Guitar I'
Gtr II (C# G# C# F# A# C#) - 'Guitar II'
Gtr III (C# G# C# F# A# C#) - 'Untitled'

   Intro/Verse/Outro
    Q=90
    N.C.        G#F5C#5     Am   N.C.C5 A5N.C.F5E5N.C.
   4/4
    Gtrs I, III
    PM--------|     PM----|      PM|      PM|     PM--------|
    S S T T T T E E S S S S Q    S S  E E S S E E S S T T T T
||-----------------------------|------------------------------|
||o-------------------------1--|------------------------------|
||--------------------------2--|------------------------------|
||--------------6-3---------2--|-----10-7-----3-2-------------|
||o-------------6-3---------0--|-----10-7-----3-2-------------|
||--0-0-0-0-0-0-6-3-0-0---0----|-0-0-10-7-0-0-3-2-0-0-0-0-0-0-|


  G#F5N.C.    Am N.C.C5   A5N.C.F5E5F5Bb5 N.C.
      PM|   PM   PM|        PM|           PM--------|
  E E S S S S Q  S S  E   E S S E S S Q   S S T T T T
|-----------------------|-----------------------------|
|-------------1---------|-----------------------------|
|-------------2---------|-----------------------------|
|-6-3---------2------10-|-7-----3-2-3-9\--------------|
|-6-3---------0------10-|-7-----3-2-3-9\--------------|
|-6-3-0-0---0----0-0-10-|-7-0-0-3-2-3-9\--0-0-0-0-0-0-|


  G#F5N.C.    Am N.C.C5   A5N.C.F5E5N.C.        G#F5
      PM----|    PM|        PM|     PM--------|
  E E S S S S Q  S S  E   E S S E E S S T T T T E E
|-----------------------|---------------------------|
|-------------1---------|---------------------------|
|-------------2---------|---------------------------|
|-6-3---------2------10-|-7-----3-2-------------6-3-|
|-6-3---------0------10-|-7-----3-2-------------6-3-|
|-6-3-0-0---0----0-0-10-|-7-0-0-3-2-0-0-0-0-0-0-6-3-|


                             To Coda
  N.C.    B5 N.C.C5 A5N.C.  F5E5F5N.C.
                           2/4
  Gtr I
  PM----|    PM|      PM|         ~~~~
  S S S S Q  S S  E E S S   E S S E E  6x
|-------------------------|------------||
|---------1---------------|-----------o||
|---------2---------------|-------2-1--||
|---------2------10-7-----|-3-2S3------||
|---------0------10-7-----|-3-2s3-----o||
|-0-0---0----0-0-10-7-0-0-|-3-2s3------||
|
| Gtr III
| PM----|    PM|      PM|         ~~~~
| S S S S Q  S S  E E S S   E S S E E  6x
|-------------------------|------------||
|---------1---------------|-------3-6-o||
|---------2---------------|------------||
|---------2------10-7-----|-3-2S3------||
|---------0------10-7-----|-3-2s3-----o||
|-0-0---0----0-0-10-7-0-0-|-3-2s3------||


   Interlude 1
    N.C.
   4/4
    Gtrs I, III
    PM----------------------------------------------------------|
      |-3-|     |-3-| |--3--|     |-3-| |-3-| |-3-| |-3-| |-3-|
    e s s s e e s s e e e e e   e s s s s s s s s s s s s s s s e E
||----------------------------|--------------------------------------|
||o---------------------------|--------------------------------------|
||----------------------------|--------------------------------------|
||----------------------------|--------------------------------------|
||o---------------------------|--------------------------------------|
||--0-0-0-0-0-0-0-0-0-0-0-0-0-|-0-0-0-0-0-0-0-0-0-0-0-0-0-0-0-0-0----|


  N.C.
  PM----------------------------------------------------------|
    |-3-|     |-3-| |--3--|     |-3-| |-3-| |-3-| |-3-| |-3-|
  e s s s e e s s e e e e e   e s s s s s s s s s s s s s s s e E
|---------------------------|--------------------------------------|
|---------------------------|--------------------------------------|
|---------------------------|--------------------------------------|
|---------------------------|--------------------------------------|
|---------------------------|--------------------------------------|
|-8-8-8-8-8-8-8-8-8-8-8-8-8-|-8-8-8-8-8-8-8-8-8-8-8-8-8-8-8-8-8----|


  N.C.
  PM------------------------------------------------|
    |-3-|     |-3-| |--3--|     |-3-|           |-3-|
  e s s s e e s s e e e e e   e s s s e e e S s e e e
|---------------------------|-------------------------|
|---------------------------|-------------------------|
|---------------------------|-------------------------|
|---------------------------|-------------------------|
|---------------------------|-------------------------|
|-3-3-3-3-3-3-3-3-3-3-3-3-3-|-3-3-3-3-3-3-3---3-3-3-3-|


  N.C.
  PM-----------------------------------
    |-3-| |-3-| |-3-| |-3-| |-3-|
  e s s s s s s s s s s s s s s s e E
|-------------------------------------|
|-------------------------------------|
|-------------------------------------|
|-------------------------------------|
|-------------------------------------|
|-3-3-3-3-3-3-3-3-3-3-3-3-3-3-3-3-3---|


 ---------------------------------|
    |-3-| |-3-| |-3-| |-3-| |-3-|
  e s s s s s s s s s s s s s s s e E    3x
|----------------------------------------||
|---------------------------------------o||
|----------------------------------------||
|----------------------------------------||
|---------------------------------------o||
|-3-3-3-3-3-3-3-3-3-3-3-3-3-3-3-3-3------||


   Interlude 2
    D5N.C.                          D5N.C.
      PM------------------------|     PM----------------------------|
      |-3-|     |-3-| |----3----|     |-3-| |-3-| |-3-| |-3-| |-3-|
    E s s s e e s s e e e e     e   E s s s s s s s s s s s s s s s e  E
||--------------------------------|----------------------------------------|
||o-------------------------------|----------------------------------------|
||--------------------------------|----------------------------------------|
||--0-----------------------------|-0--------------------------------------|
||o-0-----------------------------|-0--------------------------------------|
||--0-0-0-0-0-0-0-0-0-0-0-0-----0-|-0-0-0-0-0-0-0-0-0-0-0-0-0-0-0-0-0------|
|
|   Gtr II
|   TP      TPTP             TP     TPTP    TP    TP                   TP
|   Q       E H             +E      E E     E     H                   +E
||--------------------------------|----------------------------------------|
||o-----------3-------------(3)---|-3-------------3-------------------(3)--|
||----------4---------------------|---------4------------------------------|
||--4-----------------------------|---4------------------------------------|
||o-------------------------------|----------------------------------------|
||--------------------------------|----------------------------------------|


  BbN.C.                      Bb5 N.C.
    PM--------------------|       PM------------------------------|
    |-3-|     |-3-| |--3--|       |-3-| |-3-| |-3-|  |-3--| |-3-|
  E s s s e e s s e e e e e    E  s s s s s s s s s  s  s s s s s  e   E
|---------------------------|----------------------------------------------|
|---------------------------|----------------------------------------------|
|---------------------------|----------------------------------------------|
|-8-------------------------|--8-------------------------------------------|
|-8-------------------------|--8-------------------------------------------|
|-8-8-8-8-8-8-8-8-8-8-8-8-8-|--8--8-8-8-8-8-8-8-8-8--8--8-8-8-8-8--8-------|
|
| TPTP    TPTPTP               TP TP    TP    TP     TP     TP     TP  TP
| E E     E E H               +E  E     E     E     +E      E     +E  +E
|-----------4-3-------------|-(3)---------------------------3-----(3)-(3)--|
|---------------------------|-----------------2-----(2)--------------------|
|-3-------3-----------------|-----------3----------------------------------|
|---3-----------------------|-----3----------------------------------------|
|---------------------------|----------------------------------------------|
|---------------------------|----------------------------------------------|


  F5N.C.                        F5N.C.
    PM----------------------|     PM------------------------|
    |-3-|      |-3--| |--3--|     |-3-|            |---3----|
  E s s s e e  s  s e e e e e   E s s s e e e S s  e  e     e
|-----------------------------|-------------------------------|
|-----------------------------|-------------------------------|
|-----------------------------|-------------------------------|
|-3---------------------------|-3-----------------------------|
|-3---------------------------|-3-----------------------------|
|-3-3-3-3-3-3--3--3-3-3-3-3-3-|-3-3-3-3-3-3-3---3--3--3-----3-|
|
| TPTP    TPTP TP               TPTP    TPTPTPTP   TP    TP
| E E     E E +H                E E     E E E E   +E    +E
|-----------------------------|-------------------------------|
|-----------------------------|-------------2-5---(5)---(5)---|
|-----------2-(2)-------------|-----------2-------------------|
|---3-----4-------------------|---3-----4---------------------|
|-3---------------------------|-3-----------------------------|
|-----------------------------|-------------------------------|


  F5
    |-3-| |-3-| |-3-|  |-3--| |-3-|
  E S S S S S S S S S  S  S S S S S S E.
|----------------------------------------|
|----------------------------------------|
|----------------------------------------|
|-3-3-3-3-3-3-3-3-3-3--3--3-3-3-3-3-3----|
|-3-3-3-3-3-3-3-3-3-3--3--3-3-3-3-3-3----|
|-3-3-3-3-3-3-3-3-3-3--3--3-3-3-3-3-3----|
|
| TPTP    TP    TP     TP
| E E     E     E     +H
|----------------------------------------|
|----------------------------------------|
|---------------2-----(2)----------------|
|---3-----4------------------------------|
|-3--------------------------------------|
|----------------------------------------|


                                                Breakdown
                                 D.C. al Coda    &
    |-3-| |-3-| |-3-| |-3-| |-3-|
  E S S S S S S S S S S S S S S S  S  E.      3x  W
|---------------------------------------------||-------*|
|--------------------------------------------o||-------*|
|---------------------------------------------||-------*|
|-3-3-3-3-3-3-3-3-3-3-3-3-3-3-3-3--3----------||-------*|
|-3-3-3-3-3-3-3-3-3-3-3-3-3-3-3-3--3---------o||-------*|
|-3-3-3-3-3-3-3-3-3-3-3-3-3-3-3-3--3----------||-------*|
|
| TPTP    TP    TP    TP    TP     TP     TP
| E E     E     E     E     E     +E     +E   3x  W
|---------------------------------------------||-------*|
|---------------------2-----5-----(5)----(5)-o||-------*|
|---------------2-----------------------------||-------*|
|---3-----4-----------------------------------||-------*|
|-3------------------------------------------o||-------*|
|---------------------------------------------||-------*|



Duration Legend
---------------
W - whole; H - half; Q - quarter; E - 8th; S - 16th; T - 32nd; X - 64th; a - acciaccatura
+ - note tied to previous; . - note dotted; .. - note double dotted
Uncapitalized letters represent notes that are staccato (1/2 duration)
Irregular groupings are notated above the duration line
Duration letters will always appear directly above the note/fret number it represents the
duration for.  Duration letters with no fret number below them represent rests.  Multi-
bar rests are notated in the form Wxn, where n is the number of bars to rest for.  Low
melody durations appear below the staff

Tablature Legend
----------------
 h   - hammer-on
 p   - pull-off
 b   - bend
 pb  - pre-bend
 r   - bend release (if no number after the r, then release immediately)
 /\  - slide into or out of (from/to "nowhere")
 s   - legato slide
 S   - shift slide
 - natural harmonic
[n]  - artificial harmonic
n(n) - tapped harmonic
 ~   - vibrato
 tr  - trill
 T   - tap
 TP  - trem. picking
 PM  - palm muting
\n/  - tremolo bar dip; n = amount to dip
 \n  - tremolo bar down
 n/  - tremolo bar up
/n\  - tremolo bar inverted dip
 =   - hold bend; also acts as connecting device for hammers/pulls
 <> - volume swell (louder/softer)
 x   - on rhythm slash represents muted slash
 o   - on rhythm slash represents single note slash

Misc Legend
-----------
 |  - bar
||  - double bar
||o - repeat start
o|| - repeat end
*|  - double bar (ending)
 :  - bar (freetime)
 $  - Segno
 &  - Coda
Tempo markers -  = BPM(8/16=s8/s16), where s8 = swing 8ths, s16 = swing 16ths

Добавлено: 01.07.2012
Другие материалы по этой песне:

Страница создана 26.02.2012
http://primanota.ru/enslaved/havenless-chords.htm
Привет, Гость.
Предлагаем пройти революционный курс по гитаре.
Подарок от PrimaNota.Ru, забирай!