PrimaNota.ru - самый крупный в мире бесплатный архив песенных текстов, аккордов, табулатур и нот


Ensiferum - Old Man - текст песни, таба, видео

Регистрация Запомнить меня
Войти через:  Facebook Google Twitter Vk Yandex Mail.ru

Ensiferum - Old Man - текст песни, таба, видео

Печатать
Просмотров: 204
Ensiferum
Old Man
tabbed by: Martijn Wietsma (Darkenelf)
email: dalvanian@yahoo.com

tune down to D or something.

Intro:
Riff A
e|--------------------------------------------------------|
B|--------------------------------------------------------|
G|--------------------------------------------------------|
D|-3---1--------------------------------------------------|
A|---------4---8---3------6---4---3---(4)---1-1-----------|
E|--------------------------------------------------------|
                                                     (4x)

Riff B
e|--------------------------------------------------------|
B|--------------------------------------------------------|
G|--------------------------------------------------------|
D|----1h3-3---1h3h------------1h3-3---1h3h----------------|
A|-1---------------4-3-3----1--------------4-3------------|
E|--------------------------------------------------------|
                                                     (4x)

Riff A
e|--------------------------------------------------------|
B|--------------------------------------------------------|
G|--------------------------------------------------------|
D|-3---1--------------------------------------------------|
A|---------4---8---3------6---4---3---(4)---1-1-----------|
E|--------------------------------------------------------|
                                                     (4x)

Riff B
e|--------------------------------------------------------|
B|--------------------------------------------------------|
G|--------------------------------------------------------|
D|----1h3-3---1h3h------------1h3-3---1h3h----------------|
A|-1---------------4-3-3----1--------------4-3------------|
E|--------------------------------------------------------|
                                                     (4x)

Riff C
e|--------------------------------------------------------|
B|--------------------------------------------------------|
G|--------------------------------------------------------|
D|--------------------------------------------------------|
A|--------------------------------------------------------|
E|-8-8-8-8---3-3-3-3---4-4-4-4---6-6-6-6------------------|
   . . . .   . . . .   . . . .   . . . .             (4x)

Riff D
e|--------------------------------------------------------|
B|--------------------------------------------------------|
G|--------------------------------------------------------|
D|---3p1h3p1---1h3-----3----------------------------------|
A|-1----------------4----3--------------------------------|
E|--------------------------------------------------------|
                                                     (6x)

Riff A
e|--------------------------------------------------------|
B|--------------------------------------------------------|
G|--------------------------------------------------------|
D|-3---1--------------------------------------------------|
A|---------4---8---3------6---4---3---(4)---1-1-----------|
E|--------------------------------------------------------|
                                                     (4x)
Riff D
e|--------------------------------------------------------|
B|--------------------------------------------------------|
G|--------------------------------------------------------|
D|---3p1h3p1---1h3-----3----------------------------------|
A|-1----------------4----3--------------------------------|
E|--------------------------------------------------------|
                                                     (8x)

Riff E
e|--------------------------------------------------------|
B|--------------------------------------------------------|
G|--------------------------------------------------------|
D|--------3-3-3-1-1-1-3-3-3-6-6-6-4-4-4-3-3-3-4-(4)(4)----|
A|-1-1-1--------------------------------------------------|
E|--------------------------------------------------------|

e|--------------------------------------------------------|
B|--------------------------------------------------------|
G|--------------------------------------------------------|
D|-------4-4-4-3-3-3-4-4-4-8-8-8-4-4-4-3-3-3-4-(4)-(4)----|
A|-2-2-2--------------------------------------------------|
E|--------------------------------------------------------|

e|--------------------------------------------------------|
B|--------------------------------------------------------|
G|--------------------------------------------------------|
D|-------3-3-3-1-1-1-3-3-3-6-6-6-4-4-4-3-3-3-4-(4)-(4)----|
A|-1-1-1--------------------------------------------------|
E|--------------------------------------------------------|

e|--------------------------------------------------------|
B|--------------------------------------------------------|
G|--------------------------------------------------------|
D|-------4-4-4-3-3-3-4-4-4--------------------------------|
A|-2-2-2-------------------6-6-6-4-4-4-1-(1)-(1)----------|
E|--------------------------------------------------------|
                                                      (4x)
Riff F
e|--------------------------------------------------------|
B|--------------------------------------------------------|
G|--------------------------------------------------------|
D|---4-3-4h----3h4--3-------------------------------------|
A|-1--------4---------------------------------------------|
E|--------------------------------------------------------|
                                                      (3x)
Riff E
e|--------------------------------------------------------|
B|--------------------------------------------------------|
G|--------------------------------------------------------|
D|--------3-3-3-1-1-1-3-3-3-6-6-6-4-4-4-3-3-3-4-(4)(4)----|
A|-1-1-1--------------------------------------------------|
E|--------------------------------------------------------|

e|--------------------------------------------------------|
B|--------------------------------------------------------|
G|--------------------------------------------------------|
D|-------4-4-4-3-3-3-4-4-4-8-8-8-4-4-4-3-3-3-4-(4)-(4)----|
A|-2-2-2--------------------------------------------------|
E|--------------------------------------------------------|

e|--------------------------------------------------------|
B|--------------------------------------------------------|
G|--------------------------------------------------------|
D|-------3-3-3-1-1-1-3-3-3-6-6-6-4-4-4-3-3-3-4-(4)-(4)----|
A|-1-1-1--------------------------------------------------|
E|--------------------------------------------------------|

e|--------------------------------------------------------|
B|--------------------------------------------------------|
G|--------------------------------------------------------|
D|-------4-4-4-3-3-3-4-4-4--------------------------------|
A|-2-2-2-------------------6-6-6-4-4-4-1-(1)-(1)----------|
E|--------------------------------------------------------|
                                                      (4x)

Riff G
e|--------------------------------------------------------|
B|--------------------------------------------------------|
G|--------------------------------------------------------|
D|---6-7----6-7-6-4----6-7----7-4-------------------------|
A|-4------4----------4------4-----------------------------|
E|--------------------------------------------------------|
                                                      (4x)

e|--------------------------------------------------------|
B|--------------------------------------------------------|
G|----8-9----8-9-8-6-----8-9-----9-6----------------------|
D|-6-------6----------6-------6---------------------------|
A|--------------------------------------------------------|
E|--------------------------------------------------------|
                                                      (4x)

Acoustic:
Riff B
e|--------------------------------------------------------|
B|--------------------------------------------------------|
G|--------------------------------------------------------|
D|----1h3-3---1h3h------------1h3-3---1h3h----------------|
A|-1---------------4-3-3----1--------------4-3------------|
E|--------------------------------------------------------|
                                                     (4x)
Distorted:
Riff B
e|--------------------------------------------------------|
B|--------------------------------------------------------|
G|--------------------------------------------------------|
D|----1h3-3---1h3h------------1h3-3---1h3h----------------|
A|-1---------------4-3-3----1--------------4-3------------|
E|--------------------------------------------------------|
                                               (till end)

Visit MetalTabs.com for more metal tablatur
Добавлено: 02.03.2012
Другие материалы по этой песне:

Страница создана 02.03.2012
http://primanota.ru/ensiferum/old-man-chords.htm
Привет, Гость.
Предлагаем пройти революционный курс по гитаре.
Подарок от PrimaNota.Ru, забирай!