PrimaNota.ru - самый крупный в мире бесплатный архив песенных текстов, аккордов, табулатур и нот


Ensiferum - Mourning Heart - таба, видео

Регистрация Запомнить меня
Войти через:  Facebook Google Twitter Vk Yandex Mail.ru

Ensiferum - Mourning Heart - таба, видео

Печатать
Просмотров: 114
                                Mourning Heart                                  


Ensiferum                                                                      
Rhythm Guitar



     ^        ^           ^        ^           ^        ^         
     H        H           H        H           H        H         
E||-----------3--------|--------------------|--6--------8--------|
B||--3--------3--------|--3--------3--------|--3--------8--------|
G||--2--------3--------|--2--------3--------|--3--------5--------|
D||--0-----------------|--0--------0--------|--------------------|
A||--------------------|--------------------|--------------------|
E||--------------------|--------------------|--------------------|


  ^        ^           ^        ^           ^        ^         
  H        H           H        H           H        H         
--------------------|--------------------|--------------------|
--------------------|-----------8--------|-----------3--------|
--7--------7--------|--7--------7--------|--7--------3--------|
--7--------7--------|--7--------8--------|--7--------0--------|
--5--------5--------|--5-----------------|--5-----------------|
--------------------|--------------------|--------------------|


  ^        ^            ^         ^            ^         ^         
  H        H            H         H            H         H         
--6--------8--------|--10------------------|----------------------|
--6--------8--------|--10------------------|----------------------|
--3--------5--------|---7------------------|----------------------|
--------------------|------------12--------|--12--------10--------|
--------------------|------------12--------|--12--------10--------|
--------------------|------------10--------|--10---------8--------|


   ^         ^           ^        ^           ^        ^         
   H         H           H        H           H        H         
----------------------|--------------------|--------------------|
----------------------|--------------------|--3-----------------|
----------------------|-----------5--------|--2--------5--------|
--12--------10--------|--5--------5--------|--0--------5--------|
--12--------10--------|--5--------3--------|-----------3--------|
--10---------8--------|--3-----------------|--------------------|


  ^        ^           ^        ^           ^        ^         
  H        H           H        H           H        H         
-----------3--------|--------------------|--6--------8--------|
--3--------3--------|--------------------|--3--------8--------|
--2--------3--------|--5--------5--------|--3--------5--------|
--0-----------------|--5--------5--------|--------------------|
--------------------|--3--------3--------|--------------------|
--------------------|--------------------|--------------------|


                       Dm        C           Dm        F         
  ^        ^           ^    v    ^           ^    v    ^         
  H        H           Q    Q    H           Q    Q    H         
--------------------|--5---------3--------|--1---------1--------|
--------------------|--6---------5--------|--3---------1--------|
--7--------7--------|--7---------5--------|--2---------2--------|
--7--------7--------|--7---------5--------|--0----0----3--------|
--5--------5--------|--5----5----3--------|------------3--------|
--------------------|---------------------|------------1--------|


  C         Gm          C        Dm          Dm        C         
  ^         ^           ^        ^           ^    v    ^         
  Q    Q    H           H        H           Q    Q    H         
--0---------3--------|--3--------5--------|--5---------3--------|
--1---------3--------|--1--------6--------|--6---------5--------|
--0---------3--------|--0--------7--------|--7---------5--------|
--2---------5--------|--2--------7--------|--7---------5--------|
--3----3----5--------|--3--------5--------|--5----5----3--------|
------------3--------|--------------------|---------------------|


  Dm        F           C         Am          C        Dm        
  ^    v    ^           ^         ^           ^        ^         
  Q    Q    H           Q    Q    H           H        H         
--1---------1--------|--0---------5--------|--3--------5--------|
--3---------1--------|--1---------5--------|--1--------6--------|
--2---------2--------|--0---------5--------|--0--------7--------|
--0----0----3--------|--2---------7--------|--2--------7--------|
------------3--------|--3----3----7--------|--3--------5--------|
------------1--------|------------5--------|--------------------|


  Dm        C           Dm        F           C         Gm        
  ^    v    ^           ^    v    ^           ^         ^         
  Q    Q    H           Q    Q    H           Q    Q    H         
--5---------3--------|--1---------1--------|--0---------3--------|
--6---------5--------|--3---------1--------|--1---------3--------|
--7---------5--------|--2---------2--------|--0---------3--------|
--7---------5--------|--0----0----3--------|--2---------5--------|
--5----5----3--------|------------3--------|--3----3----5--------|
---------------------|------------1--------|------------3--------|


  C        Dm          Dm        C           Dm        C         
  ^        ^           ^    v    ^           ^         ^         
  H        H           Q    Q    H           Q    Q    H         
--0--------5--------|--5---------3--------|--3---------3--------|
--1--------6--------|--6---------5--------|--5---------5--------|
--0--------7--------|--7---------5--------|--5---------5--------|
--2--------7--------|--7---------5--------|--5---------5--------|
--3--------5--------|--5----5----3--------|--3----3----3--------|
--------------------|---------------------|---------------------|


  Dm       C           C        Dm                                 
  ^        ^           ^        ^                                  
  H        H           H        H                                  
--5--------0--------|--3--------5--------|-----------|-----------||
--6--------1--------|--1--------6--------|-----------|-----------||
--7--------0--------|--0--------7--------|-----------|-----------||
--7--------2--------|--2--------7--------|-----------|-----------||
--5--------3--------|--3--------5--------|-----------|-----------||
--------------------|--------------------|-----------|-----------||





Lead Guitar



      Q     Q     Q     E   E      Q     E   E   H         
E||--------17----15----15------|------------15------------|
B||--18--------------------17--|--18----18------17--------|
G||----------------------------|--------------------------|
D||----------------------------|--------------------------|
A||----------------------------|--------------------------|
E||----------------------------|--------------------------|


   Q     Q     E   E   Q        H         H         
----------------------------|----------------------|
--15----18----17------------|--15--------15--------|
------------------17--14----|----------------------|
----------------------------|----------------------|
----------------------------|----------------------|
----------------------------|----------------------|


   Q     Q     Q     E   E      Q     E   E   H         
--------17----15----15------|------------15------------|
--18--------------------17--|--18----18------17--------|
----------------------------|--------------------------|
----------------------------|--------------------------|
----------------------------|--------------------------|
----------------------------|--------------------------|


   Q     Q     E   E   E   E      H         H         
------------------------------|--17------------------|
--15----18----17------17------|------------15--------|
------------------17------17--|----------------------|
------------------------------|----------------------|
------------------------------|----------------------|
------------------------------|----------------------|


   Q     E   E   Q     Q        Q     Q     H         
----------------------------|--------17--------------|
--18----18--15--17----17----|--18----------17--------|
----------------------------|------------------------|
----------------------------|------------------------|
----------------------------|------------------------|
----------------------------|------------------------|


   Q     Q     E   E   E   E      Q     E   E   H         
------------------------------|--------------------------|
--15----18----17------17------|--18----18--17--17--------|
------------------17------17--|--------------------------|
------------------------------|--------------------------|
------------------------------|--------------------------|
------------------------------|--------------------------|


   Q     Q     Q     E   E      E   E   E   E   H         
--------17----15----15------|----------------------------|
--18--------------------17--|--17--15--17--18--17--------|
----------------------------|----------------------------|
----------------------------|----------------------------|
----------------------------|----------------------------|
----------------------------|----------------------------|


   Q     Q     E   E   Q        H         H         
----------------------------|----------------------|
--15----18----17------17----|--15--------15--------|
------------------17--------|----------------------|
----------------------------|----------------------|
----------------------------|----------------------|
----------------------------|----------------------|


   Q     E   E   Q     Q        Q     Q     H         
----------------------------|--------------17--------|
--18----18--15--17----17----|--15----15--------------|
----------------------------|------------------------|
----------------------------|------------------------|
----------------------------|------------------------|
----------------------------|------------------------|


   Q     E   E   Q     Q        Q     Q     H         
----------------15----15----|------------------------|
--17----17--18--------------|--17----------15--------|
----------------------------|--------17--------------|
----------------------------|------------------------|
----------------------------|------------------------|
----------------------------|------------------------|


   Q     E   E   Q     Q        Q     Q     H         
----------------------------|--------------17--------|
--18----18--15--17----17----|--15----15--------------|
----------------------------|------------------------|
----------------------------|------------------------|
----------------------------|------------------------|
----------------------------|------------------------|


   Q     E   E   Q     Q        Q     E   E   H         
----------------17----17----|--------------------------|
--17----17--18--------------|--17----17--18--15--------|
----------------------------|--------------------------|
----------------------------|--------------------------|
----------------------------|--------------------------|
----------------------------|--------------------------|


   Q     E   E   Q     Q        Q     Q     H         
----------------------------|--------------17--------|
--18----18--15--17----17----|--15----15--------------|
----------------------------|------------------------|
----------------------------|------------------------|
----------------------------|------------------------|
----------------------------|------------------------|


   Q     E   E   Q     Q        H         Q     E   E   
--15----15--17--------15----|--------------------------|
----------------18----------|--17--------15----15--17--|
----------------------------|--------------------------|
----------------------------|--------------------------|
----------------------------|--------------------------|
----------------------------|--------------------------|


   Q     E   E   Q     E   E      Q     Q     H         
----------------15--------15--|------------------------|
--18----17--18--------18------|--17----15----17--------|
------------------------------|------------------------|
------------------------------|------------------------|
------------------------------|------------------------|
------------------------------|------------------------|


   Q     E   E   Q     Q        E   E   Q     H                     
----------------------15----|--------------------------|-----------|
--18----18--15--------------|--17--15--------15--------|-----------|
----------------17----------|----------17--------------|-----------|
----------------------------|--------------------------|-----------|
----------------------------|--------------------------|-----------|
----------------------------|--------------------------|-----------|


-----------||
-----------||
-----------||
-----------||
-----------||
-----------||




Duration Legend
---------------
W - whole
H - half
Q - quarter
E - 8th
S - 16th
T - 32nd
X - 64th
. - note dotted
|-n-|  - n-tuplets


Tablature Legend
----------------
L - tied note
x - dead note
g - grace note
(n) - ghost note
> - accentuded note
NH - natural harmonic
AH - artificial harmonic
TH - tapped harmonic
SH - semi harmonic
PH - pitch harmonic
h - hammer on
p - pull off
b - bend
br - bendRelease
pb - preBend
pbr - preBendRelease
brb - bendReleaseBend
\n/ - tremolo bar dip
\n - tremolo bar dive
-/n - tremolo bar Release up
/n\ - tremolo bar inverted dip
/n - tremolo bar return
-\n - tremolo bar Release down
S - shift slide
s - legato slide
/ -  slide into from below or out of upwards
\ -  slide into from above or out of downwards
~ - vibrato
W - wide vibrato
tr - trill
TP - tremolo picking
T - tapping
S - slap
P - pop
< - fade in
^ - brush up
v - brush down
Добавлено: 14.03.2012
Другие материалы по этой песне:

Страница создана 14.03.2012
http://primanota.ru/ensiferum/mourning-heart-chords.htm
Привет, Гость.
Предлагаем пройти революционный курс по гитаре.
Подарок от PrimaNota.Ru, забирай!