PrimaNota.ru - самый крупный в мире бесплатный архив песенных текстов, аккордов, табулатур и нот


Ensiferum - Heathen Throne - текст песни, таба, видео

Регистрация Запомнить меня
Войти через:  Facebook Google Twitter Vk Yandex Mail.ru

Ensiferum - Heathen Throne - текст песни, таба, видео

Печатать
Просмотров: 248
Авторы музыки: Markus Toivonen
Авторы текста: Sami Hinkka
Tuning: Standard D
Tempo ~ 135-145 BPM

I know most Ensiferum songs are played in Standard E, however the songs "Heathen
Throne" and the "Longest Journey" are both played in Standard D Tuning. If I have
time I will tab out the rest of the song as well.

       NH
       Q    Q      E   E  Q
D||--<>7------------------------|
A||---------------12--10--8~----|
F||---------9~------------------|
C||-----------------------------|
G||-----------------------------|
D||-----------------------------|


                NH
  E  E   Q      Q    Q
--------------<>7----------|
--L--8--10-----------7~----|
---------------------------|
---------------------------|
---------------------------|
---------------------------|


    PH
    H         S  S S  S  S  S S  S
-----------------------------------|
-----------------------------------|
--<>9~--------9---------12---------|
----------------10-9-10----10-9-10-|
-----------------------------------|
-----------------------------------|


  S  S S  S  S  S S  S  S  S S  S  S S  S  S
---------------------------------------------|
---------------------------------------------|
--9---------12---------12-11-9---------------|
----10-9-10----10-9-10---------12-10-9-10-12-|
---------------------------------------------|
---------------------------------------------|


  S  S S  S  S  S S  S  S  S  S  S  S  S  S
----------------------------------------------|
----------------------------------------------|
--9---------12---------12----------16---------|
----10-9-10----10-9-10----14-12-14----17-14-1-|
----------------------------------------------|
----------------------------------------------|


   S  S  S  S  S  S  S  S  E    E   Q
------------------------------------------|
------------------------------------------|
--16-17-16-17-19-17-16----16s--19--19~----|
-----------------------19-----------------|
------------------------------------------|
------------------------------------------|


   Q      E   E    E   E   Q
---------------------------------|
---------------------------------|
--21~----19--21--/16--14--12~----|
---------------------------------|
---------------------------------|
---------------------------------|


   Q      S  S  S  S  Q      Q
-----------------------------------|
-----------------------------------|
------------12---------------------|
--16~----16----16-14---------------|
---------------------14~----17~----|
-----------------------------------|


  S  S  S S  S  S  S  S  S  S  S  S S  E.
-------------------------------------------|
-------------------------------------------|
--9-12-11-9-14-12-11----12-11--------------|
---------------------14-------14-12-9-14---|
-------------------------------------------|
-------------------------------------------|


                                       PH
  S  S  S S  S  S  S  S  S  S  S  S    Q
------------15-14-12-------------------------|
---------------------15-13-12----------------|
--9-12-11-9-------------------14-12-<>11~----|
---------------------------------------------|
---------------------------------------------|
---------------------------------------------|


   S  S  S  S  S  S  E   S  S  E   S  S  E
--------------------------------------------|
--------------------------------------------|
----------------------------------16-14-----|
--------------------14--17-16-17--------17--|
-----------12-14-15-------------------------|
--12-14-15----------------------------------|


   S  S  S  S  S  S  S  S  S  S  S  S  S  S
--------------------------15----14-15-14------|
--------------15----15-17----17----------17-1-|
--16-14-16-17----17---------------------------|
----------------------------------------------|
----------------------------------------------|
----------------------------------------------|


   E   T  T  S  E   E   E   T  T  S  E   E
--------------------------------------------|
--17--15-17-15------------------------------|
---------------16--14--16--14-16-14---------|
------------------------------------17--16--|
--------------------------------------------|
--------------------------------------------|


   E   T  T  S  E   E   E   E   Q
-------------------------------------|
-------------------------------------|
-------------------------------------|
--17--16-17-16-14----------16--12----|
-------------------17--14------------|
-------------------------------------|


   |--3--|  |--3--|  |--3--|  |--3--|  |--3--
   S  S  S  S  S  S  S  S  S  S  S  S  S  S
----------------------------------------------|
----------------------------------------------|
--------------------------------------12------|
-----------------------------12-14-16----16-1-|
--------------------12-14-15------------------|
--12-14-15-12-14-15---------------------------|


   |--3--|  |--3--|  |--3--|  |--3--|
   S  S  S  S  S  S  S  S  S  S  S  S  Q
--------------------14-15-17-14-15-17-19~----|
--13-15-17-13-15-17--------------------------|
---------------------------------------------|
---------------------------------------------|
---------------------------------------------|
---------------------------------------------|


  W
--L----------------||
-------------------||
-------------------||
-------------------||
-------------------||
-------------------||




Duration Legend
---------------
W - whole
H - half
Q - quarter
E - 8th
S - 16th
T - 32nd
X - 64th
. - note dotted
|-n-|  - n-tuplets


Tablature Legend
----------------
L - tied note
x - dead note
g - grace note
(n) - ghost note
> - accentuded note
NH - natural harmonic
AH - artificial harmonic
TH - tapped harmonic
SH - semi harmonic
PH - pitch harmonic
h - hammer on
p - pull off
b - bend
br - bendRelease
pb - preBend
pbr - preBendRelease
brb - bendReleaseBend
\n/ - tremolo bar dip
\n - tremolo bar dive
-/n - tremolo bar Release up
/n\ - tremolo bar inverted dip
/n - tremolo bar return
-\n - tremolo bar Release down
S - shift slide
s - legato slide
/ -  slide into from below or out of upwards
\ -  slide into from above or out of downwards
~ - vibrato
W - wide vibrato
tr - trill
TP - tremolo picking
T - tapping
S - slap
P - pop
< - fade in
^ - brush up
v - brush down
Добавлено: 28.07.2012
Другие материалы по этой песне:

Страница создана 28.07.2012
http://primanota.ru/ensiferum/heathen-throne-chords.htm
Привет, Гость.
Предлагаем пройти революционный курс по гитаре.
Подарок от PrimaNota.Ru, забирай!