PrimaNota.ru - самый крупный в мире бесплатный архив песенных текстов, аккордов, табулатур и нот


Ensiferum - Goblins Dance - текст песни, таба, видео

Регистрация Запомнить меня
Войти через:  Facebook Google Twitter Vk Yandex Mail.ru

Ensiferum - Goblins Dance - текст песни, таба, видео

Печатать
Просмотров: 178
                                Goblins Dance                                   


                                                                       Ensiferum
Lead guitar




                   |-3| |-3-| |-3| |-3-| |-3| |-3-| |-3| |-3-|  
     H             E  S S S S E  S S S S E  S S S S E  S S S S  
E||-----------||-----------------------------------------------|
B||-----------||-----------------------------------------------|
G||-----------||*----------------------------------------------|
D||-----------||*-------------3--------------------------------|
A||-----------||---3----------3----------3----------3----------|
E||-----------||---1--1-1-1-1----1-1-1-1-4--1-1-1-1-4--1-1-1-1-|


  |-3| |-3-| |-3| |-3-| |-3| |-3-| |-3| |-3-|  
  E  S S S S E  S S S S E  S S S S E  S S S S  
----------------------------------------------|
----------------------------------------------|
----------------------------------------------|
----------------------------------------------|
--2----------2----------3----------3----------|
--0--0-0-0-0-0--0-0-0-0-1--1-1-1-1-1--1-1-1-1-|


  |-3| |-3-| |-3| |-3-| |-3| |-3-| |-3| |-3-|  
  E  S S S S E  S S S S E  S S S S E  S S S S  
----------------------------------------------|
----------------------------------------------|
----------------------------------------------|
-------------3--------------------------------|
--3----------3----------3----------3----------|
--1--1-1-1-1----1-1-1-1-4--1-1-1-1-4--1-1-1-1-|


  |-3| |-3-| |-3| |-3-| |-3| |-3-| |-3| |-3-|    
  E  S S S S E  S S S S E  S S S S E  S S S S    
-----------------------------------------------||
-----------------------------------------------||
----------------------------------------------*||
----------------------------------------------*||
--2----------2----------3----------3-----------||
--0--0-0-0-0-0--0-0-0-0-1--1-1-1-1-1--1-1-1-1--||


  |-3| |-3-| |-3| |-3-| |-3| |-3-| |-3| |-3-|  
  E  S S S S E  S S S S E  S S S S E  S S S S  
----------------------------------------------|
----------------------------------------------|
----------------------------------------------|
----------------------------------------------|
--2----------2----------3----------3----------|
--0--0-0-0-0-0--0-0-0-0-1--1-1-1-1-1--1-1-1-1-|


    |-3| |-3-| |-3| |-3-| |-3| |-3-| |-3| |-3-|  
    E  S S S S E  S S S S E  S S S S E  S S S S  
|-----------------------------------------------|
|-----------------------------------------------|
|*-------------3--------------------------------|
|*--3----------3----------3----------3----------|
|---1--1-1-1-1----1-1-1-1-4--1-1-1-1-4--1-1-1-1-|
|-----------------------------------------------|


  |-3| |-3-| |-3| |-3-| |-3| |-3-| |-3| |-3-|    
  E  S S S S E  S S S S E  S S S S E  S S S S    
-----------------------------------------------||
-----------------------------------------------||
----------------------------------------------*||
--2----------2----------3----------3----------*||
--0--0-0-0-0-0--0-0-0-0-1--1-1-1-1-1--1-1-1-1--||
-----------------------------------------------||


  |-3| |-3-| |-3| |-3-| |-3| |-3-| |-3| |-3-|  
  E  S S S S E  S S S S E  S S S S E  S S S S  
----------------------------------------------|
----------------------------------------------|
----------------------------------------------|
--2----------2----------3----------3----------|
--0--0-0-0-0-0--0-0-0-0-1--1-1-1-1-1--1-1-1-1-|
----------------------------------------------|


    |-3-| |-3-| |-3-| |-3-| |-3-| |-3-| |-3-| |-3-|  
    S S S S S S S S S S S S S S S S S S S S S S S S  
|---------------------------------------------------|
|---------------------------------------------------|
|*--------------------------------------------------|
|*--3-3-3-3-3-3-3-3-3-3-3-3-------------------------|
|---------------------------4-4-4-4-4-4-4-4-4-4-4-4-|
|---------------------------------------------------|


  |-3-| |-3-| |-3-| |-3-| |-3-| |-3-| |-3-| |-3-|    
  S S S S S S S S S S S S S S S S S S S S S S S S    
---------------------------------------------------||
---------------------------------------------------||
--------------------------------------------------*||
--------------------------------------------------*||
--0-0-0-0-0-0-0-0-0-0-0-0-1-1-1-1-1-1-1-1-1-1-1-1--||
---------------------------------------------------||


  |-3-| |-3-| |-3-| |-3-|            
  S S S S S S S S S S S S H          
------------------------------------|
------------------------------------|
------------------------------------|
------------------------------------|
--0-0-0-0-0-0-0-0-0-0-0-0-1~--------|
------------------------------------|


    |-3| |-3-| |-3| |-3-| |-3| |-3-| |-3| |-3-|  
    E  S S S S E  S S S S E  S S S S E  S S S S  
|-----------------------------------------------|
|-----------------------------------------------|
|*----------------------------------------------|
|*-------------3--------------------------------|
|---3----------3----------3----------3----------|
|---1--1-1-1-1----1-1-1-1-4--1-1-1-1-4--1-1-1-1-|


  |-3| |-3-| |-3| |-3-| |-3| |-3-| |-3| |-3-|  
  E  S S S S E  S S S S E  S S S S E  S S S S  
----------------------------------------------|
----------------------------------------------|
----------------------------------------------|
----------------------------------------------|
--2----------2----------3----------3----------|
--0--0-0-0-0-0--0-0-0-0-1--1-1-1-1-1--1-1-1-1-|


  |-3| |-3-| |-3| |-3-| |-3| |-3-| |-3| |-3-|  
  E  S S S S E  S S S S E  S S S S E  S S S S  
----------------------------------------------|
----------------------------------------------|
----------------------------------------------|
-------------3--------------------------------|
--3----------3----------3----------3----------|
--1--1-1-1-1----1-1-1-1-4--1-1-1-1-4--1-1-1-1-|


  |-3| |-3-| |-3| |-3-| |-3| |-3-| |-3| |-3-|    
  E  S S S S E  S S S S E  S S S S E  S S S S    
-----------------------------------------------||
-----------------------------------------------||
----------------------------------------------*||
----------------------------------------------*||
--2----------2----------3----------3-----------||
--0--0-0-0-0-0--0-0-0-0-1--1-1-1-1-1--1-1-1-1--||


  |-3| |-3-| |-3| |-3-| |-3| |-3-| |-3| |-3-|  
  E  S S S S E  S S S S E  S S S S E  S S S S  
----------------------------------------------|
----------------------------------------------|
----------------------------------------------|
----------------------------------------------|
--2----------2----------3----------3----------|
--0--0-0-0-0-0--0-0-0-0-1--1-1-1-1-1--1-1-1-1-|


  |--3--|  |--3--|  |--3--|  |--3--|     |--3--|  |--3--|  |--3--|  |--3--|   
  E  E  E  E  E  E  E  E  E  E  E  E     E  E  E  E  E  E  E  E  E  E  E  E   
--------------------------------------|--------------------------------------|
--------------------------------------|--------------------------------------|
--------------------------------------|--------------------------------------|
-----------5--5--5-----------------1--|-----------5--5--5--------------------|
--3--3--3--3--3--3--3--3--3--3-----1--|--3--3--3--3--3--3--3-----3--3--------|
--1--1--1-----------1--1--1--1--------|--1--1--1-----------1-----1--1--------|


  |-3| |-3-| |--3--|  |-3| |-3-| |--3--|   
  E  S S S S E  E  E  E  S S S S E  E  E   
------------------------------------------|
------------------------------------------|
------------------------------------------|
----------------5--5----------------1--1--|
--3----------3--3--3--3----------3--1--1--|
--1--1-1-1-1-1--------1--1-1-1-1-1--------|


  |-3| |-3-| |--3--|  |-3| |-3-| |--3--|       |--3--|       |--3--|        
  E  S S S S E  E  E  E  S S S S E  E  E       E  E  E  Q    E  E  E  Q     
------------------------------------------||-------------------------------|
------------------------------------------||-------------------------------|
------------------------------------------||*------------------------------|
----------------5--5----------------------||*------------------------------|
--3----------3--3--3--3----------3--------||---3-----3--6----5--3-----3----|
--1--1-1-1-1-1--------1--1-1-1-1-1--------||------6----------------6-------|


  |--3--|  |--3--|  |--3--|            |--3--|  |--3--|  |--3--|        
  E  E  E  E  E  E  E  E  E  Q         E  E  E  E  E  E  E  E  E  Q     
-----------------------------------||----------------------------------|
-----------------------------------||----------------------------------|
----------------------------------*||----------------------------------|
-----------------3----------------*||-----------------3----------------|
--3-----3--6--L-----5--L-----3-----||--3-----3--6--L-----5--L-----3----|
-----6--------------------6--------||-----6--------------------6-------|


     |--3--|  |--3--| |-3-| |-3-|  |--3--|  |-3-|  |--3--|  |--3--|  
     S  S  S  S  S  S S S S S S S  S  S  S  S S S  S  S  S  S  S  S  
|-------------------------------------------------------------------|
|-------------------------------------------------------------------|
|*--------------------------------10-10-10-10-8-8-------------------|
|*--10-10-10-10-10-10-8-8-8-8-8-8-----------------10-10-10-10-10-10-|
|-------------------------------------------------------------------|
|-------------------------------------------------------------------|


  |-3-| |-3-| |-3-| |-3-| |-3-| |-3-| |-3-| |-3-|    
  S S S S S S S S S S S S S S S S S S S S S S S S    
---------------------------------------------------||
---------------------------------------------------||
--------------------------------------------------*||
--6-6-6-6-6-6-8-8-8-8-8-8-5-5-5-5-----------------*||
----------------------------------6-6-8-8-8-8-8-8--||
---------------------------------------------------||


  |-3-| |-3-| |-3-| |-3-| |-3-| |-3-| |-3-| |-3-|  
  S S S S S S S S S S S S S S S S S S S S S S S S  
--------------------------------------------------|
--------------------------------------------------|
--------------------------------------------------|
--6-6-6-6-6-6-8-8-8-8-8-8-5-5-5-5-----------------|
----------------------------------6-6-8-8-8-8-8-8-|
--------------------------------------------------|


    |--3--|       |--3--|          |--3--|  |--3--|  |--3--|          
    E  E  E  Q    E  E  E  Q       E  E  E  E  E  E  E  E  E  Q       
|-------------------------------|-----------------------------------||
|-------------------------------|-----------------------------------||
|*------------------------------|----------------------------------*||
|*------------------------------|-----------------3----------------*||
|---3-----3--6----5--3-----3----|--3-----3--6--L-----5--L-----3-----||
|------6----------------6-------|-----6--------------------6--------||


   |--3--|       |--3--|          |--3--|  |--3--|  |--3--|          
   E  E  E  Q    E  E  E  Q       E  E  E  E  E  E  E  E  E  Q       
-------------------------------|-----------------------------------||
-------------------------------|-----------------------------------||
*------------------------------|----------------------------------*||
*------------------------------|-----------------3----------------*||
---3-----3--6----5--3-----3----|--3-----3--6--L-----5--L-----3-----||
------6----------------6-------|-----6--------------------6--------||


  |--3--|  |--3--|  |--3--|        
  E  E  E  E  E  E  E  E  E  Q     
----------------------------------|
----------------------------------|
----------------------------------|
-----------------3----------------|
--3-----3--6--L-----5--L-----3----|
-----6--------------------6-------|


    |-3| |-3-| |-3| |-3-| |-3| |-3-| |-3| |-3-|  
    E  S S S S E  S S S S E  S S S S E  S S S S  
|-----------------------------------------------|
|-----------------------------------------------|
|*----------------------------------------------|
|*-------------3--------------------------------|
|---3----------3----------3----------3----------|
|---1--1-1-1-1----1-1-1-1-4--1-1-1-1-4--1-1-1-1-|


  |-3| |-3-| |-3| |-3-| |-3| |-3-| |-3| |-3-|    
  E  S S S S E  S S S S E  S S S S E  S S S S    
-----------------------------------------------||
-----------------------------------------------||
----------------------------------------------*||
----------------------------------------------*||
--2----------2----------3----------3-----------||
--0--0-0-0-0-0--0-0-0-0-1--1-1-1-1-1--1-1-1-1--||


  |-3| |-3-| |-3| |-3-| |-3| |-3-| |-3| |-3-|  
  E  S S S S E  S S S S E  S S S S E  S S S S  
----------------------------------------------|
----------------------------------------------|
-------------3--------------------------------|
--3----------3----------3----------3----------|
--1--1-1-1-1----1-1-1-1-4--1-1-1-1-4--1-1-1-1-|
----------------------------------------------|


  |-3| |-3-| |-3| |-3-| |-3| |-3-| |-3| |-3-|  
  E  S S S S E  S S S S E  S S S S E  S S S S  
----------------------------------------------|
----------------------------------------------|
----------------------------------------------|
--2----------2----------3----------3----------|
--0--0-0-0-0-0--0-0-0-0-1--1-1-1-1-1--1-1-1-1-|
----------------------------------------------|


  |-3| |-3-| |-3| |-3-| |-3| |-3-| |-3| |-3-|  
  E  S S S S E  S S S S E  S S S S E  S S S S  
----------------------------------------------|
----------------------------------------------|
-------------3--------------------------------|
--3----------3----------3----------3----------|
--1--1-1-1-1----1-1-1-1-4--1-1-1-1-4--1-1-1-1-|
----------------------------------------------|


  |-3| |-3-| |-3| |-3-| |-3| |-3-| |-3| |-3-|  
  E  S S S S E  S S S S E  S S S S E  S S S S  
----------------------------------------------|
----------------------------------------------|
----------------------------------------------|
--2----------2----------3----------3----------|
--0--0-0-0-0-0--0-0-0-0-1--1-1-1-1-1--1-1-1-1-|
----------------------------------------------|


    |-3| |-3-| |-3| |-3-| |-3| |-3-| |-3| |-3-|  
    E  S S S S E  S S S S E  S S S S E  S S S S  
|-----------------------------------------------|
|-----------------------------------------------|
|*----------------------------------------------|
|*-------------3--------------------------------|
|---3----------3----------3----------3----------|
|---1--1-1-1-1----1-1-1-1-4--1-1-1-1-4--1-1-1-1-|


  |-3| |-3-| |-3| |-3-| |-3| |-3-| |-3| |-3-|    
  E  S S S S E  S S S S E  S S S S E  S S S S    
-----------------------------------------------||
-----------------------------------------------||
----------------------------------------------*||
----------------------------------------------*||
--2----------2----------3----------3-----------||
--0--0-0-0-0-0--0-0-0-0-1--1-1-1-1-1--1-1-1-1--||


  |-3| |-3-| |-3| |-3-| |-3| |-3-| |-3| |-3-|  
  E  S S S S E  S S S S E  S S S S E  S S S S  
----------------------------------------------|
----------------------------------------------|
----------------------------------------------|
----------------------------------------------|
--2----------2----------3----------3----------|
--0--0-0-0-0-0--0-0-0-0-1--1-1-1-1-1--1-1-1-1-|


  |--3--|  |--3--|  |--3--|  |--3--|     |--3--|  |--3--|  |--3--|  |--3--|   
  E  E  E  E  E  E  E  E  E  E  E  E     E  E  E  E  E  E  E  E  E  E  E  E   
--------------------------------------|--------------------------------------|
--------------------------------------|--------------------------------------|
--------------------------------------|--------------------------------------|
-----------5--5--5-----------------1--|-----------5--5--5--------------------|
--3--3--3--3--3--3--3--3--3--3-----1--|--3--3--3--3--3--3--3-----3--3--------|
--1--1--1-----------1--1--1--1--------|--1--1--1-----------1-----1--1--------|


  |-3| |-3-| |--3--|  |-3| |-3-| |--3--|   
  E  S S S S E  E  E  E  S S S S E  E  E   
------------------------------------------|
------------------------------------------|
------------------------------------------|
----------------5--5----------------1--1--|
--3----------3--3--3--3----------3--1--1--|
--1--1-1-1-1-1--------1--1-1-1-1-1--------|


  |-3| |-3-| |--3--|  |-3| |-3-| |--3--|       |--3--|       |--3--|        
  E  S S S S E  E  E  E  S S S S E  E  E       E  E  E  Q    E  E  E  Q     
------------------------------------------||-------------------------------|
------------------------------------------||-------------------------------|
------------------------------------------||*------------------------------|
----------------5--5----------------------||*------------------------------|
--3----------3--3--3--3----------3--------||---3-----3--6----5--3-----3----|
--1--1-1-1-1-1--------1--1-1-1-1-1--------||------6----------------6-------|


  |--3--|  |--3--|  |--3--|            |--3--|  |--3--|  |--3--|        
  E  E  E  E  E  E  E  E  E  Q         E  E  E  E  E  E  E  E  E  Q     
-----------------------------------||----------------------------------|
-----------------------------------||----------------------------------|
----------------------------------*||----------------------------------|
-----------------3----------------*||-----------------3----------------|
--3-----3--6--L-----5--L-----3-----||--3-----3--6--L-----5--L-----3----|
-----6--------------------6--------||-----6--------------------6-------|


     |--3--|  |--3--| |-3-| |-3-|  |--3--|  |-3-|  |--3--|  |--3--|  
     S  S  S  S  S  S S S S S S S  S  S  S  S S S  S  S  S  S  S  S  
|-------------------------------------------------------------------|
|-------------------------------------------------------------------|
|*--------------------------------10-10-10-10-8-8-------------------|
|*--10-10-10-10-10-10-8-8-8-8-8-8-----------------10-10-10-10-10-10-|
|-------------------------------------------------------------------|
|-------------------------------------------------------------------|


  |-3-| |-3-| |-3-| |-3-| |-3-| |-3-| |-3-| |-3-|    
  S S S S S S S S S S S S S S S S S S S S S S S S    
---------------------------------------------------||
---------------------------------------------------||
--------------------------------------------------*||
--6-6-6-6-6-6-8-8-8-8-8-8-5-5-5-5-----------------*||
----------------------------------6-6-8-8-8-8-8-8--||
---------------------------------------------------||


  |-3-| |-3-| |-3-| |-3-| |-3-| |-3-| |-3-| |-3-|  
  S S S S S S S S S S S S S S S S S S S S S S S S  
--------------------------------------------------|
--------------------------------------------------|
--------------------------------------------------|
--6-6-6-6-6-6-8-8-8-8-8-8-5-5-5-5-----------------|
----------------------------------6-6-8-8-8-8-8-8-|
--------------------------------------------------|


    |--3--|       |--3--|          |--3--|  |--3--|  |--3--|          
    E  E  E  Q    E  E  E  Q       E  E  E  E  E  E  E  E  E  Q       
|-------------------------------|-----------------------------------||
|-------------------------------|-----------------------------------||
|*------------------------------|----------------------------------*||
|*------------------------------|-----------------3----------------*||
|---3-----3--6----5--3-----3----|--3-----3--6--L-----5--L-----3-----||
|------6----------------6-------|-----6--------------------6--------||


   |--3--|       |--3--|          |--3--|  |--3--|  |--3--|          
   E  E  E  Q    E  E  E  Q       E  E  E  E  E  E  E  E  E  Q       
-------------------------------|-----------------------------------||
-------------------------------|-----------------------------------||
*------------------------------|----------------------------------*||
*------------------------------|-----------------3----------------*||
---3-----3--6----5--3-----3----|--3-----3--6--L-----5--L-----3-----||
------6----------------6-------|-----6--------------------6--------||


  |--3--|  |--3--|  |--3--|        
  E  E  E  E  E  E  E  E  E  Q     
----------------------------------|
----------------------------------|
----------------------------------|
-----------------3----------------|
--3-----3--6--L-----5--L-----3----|
-----6--------------------6-------|


  |-3| |-3-| |-3| |-3-| |-3| |-3-| |-3| |-3-|  
  E  S S S S E  S S S S E  S S S S E  S S S S  
----------------------------------------------|
----------------------------------------------|
----------------------------------------------|
-------------3--------------------------------|
--3----------3----------3----------3----------|
--1--1-1-1-1----1-1-1-1-4--1-1-1-1-4--1-1-1-1-|


  |-3| |-3-| |-3| |-3-| |-3| |-3-| |-3| |-3-|  
  E  S S S S E  S S S S E  S S S S E  S S S S  
----------------------------------------------|
----------------------------------------------|
----------------------------------------------|
----------------------------------------------|
--2----------2----------3----------3----------|
--0--0-0-0-0-0--0-0-0-0-1--1-1-1-1-1--1-1-1-1-|


  |-3| |-3-| |-3| |-3-| |-3| |-3-| |-3| |-3-|  
  E  S S S S E  S S S S E  S S S S E  S S S S  
----------------------------------------------|
----------------------------------------------|
----------------------------------------------|
-------------3--------------------------------|
--3----------3----------3----------3----------|
--1--1-1-1-1----1-1-1-1-4--1-1-1-1-4--1-1-1-1-|


  |-3| |-3-| |-3| |-3-| |-3| |-3-| |-3| |-3-|  
  E  S S S S E  S S S S E  S S S S E  S S S S  
----------------------------------------------|
----------------------------------------------|
----------------------------------------------|
----------------------------------------------|
--2----------2----------3----------3----------|
--0--0-0-0-0-0--0-0-0-0-1--1-1-1-1-1--1-1-1-1-|


  |-3| |-3-| |-3| |-3-| |-3| |-3-| |-3| |-3-|  
  E  S S S S E  S S S S E  S S S S E  S S S S  
----------------------------------------------|
----------------------------------------------|
-------------3--------------------------------|
--3----------3----------3----------3----------|
--1--1-1-1-1----1-1-1-1-4--1-1-1-1-4--1-1-1-1-|
----------------------------------------------|


  |-3| |-3-| |-3| |-3-| |-3| |-3-| |-3| |-3-|  
  E  S S S S E  S S S S E  S S S S E  S S S S  
----------------------------------------------|
----------------------------------------------|
----------------------------------------------|
--2----------2----------3----------3----------|
--0--0-0-0-0-0--0-0-0-0-1--1-1-1-1-1--1-1-1-1-|
----------------------------------------------|


  |-3| |-3-| |-3| |-3-| |-3| |-3-| |-3| |-3-|  
  E  S S S S E  S S S S E  S S S S E  S S S S  
----------------------------------------------|
----------------------------------------------|
-------------3--------------------------------|
--3----------3----------3----------3----------|
--1--1-1-1-1----1-1-1-1-4--1-1-1-1-4--1-1-1-1-|
----------------------------------------------|


  |-3| |-3-| |-3| |-3-| |-3| |-3-| |-3| |-3-|  
  E  S S S S E  S S S S E  S S S S E  S S S S  
----------------------------------------------|
----------------------------------------------|
----------------------------------------------|
--2----------2----------3----------3----------|
--0--0-0-0-0-0--0-0-0-0-1--1-1-1-1-1--1-1-1-1-|
----------------------------------------------|


  |-3| |-3-| |-3| |-3-| |-3| |-3-| |-3| |-3-|  
  E  S S S S E  S S S S E  S S S S E  S S S S  
----------------------------------------------|
----------------------------------------------|
----------------------------------------------|
-------------3--------------------------------|
--3----------3----------3----------3----------|
--1--1-1-1-1----1-1-1-1-4--1-1-1-1-4--1-1-1-1-|


  |-3| |-3-| |-3| |-3-| |-3| |-3-| |-3| |-3-|  
  E  S S S S E  S S S S E  S S S S E  S S S S  
----------------------------------------------|
----------------------------------------------|
----------------------------------------------|
----------------------------------------------|
--2----------2----------3----------3----------|
--0--0-0-0-0-0--0-0-0-0-1--1-1-1-1-1--1-1-1-1-|


  |-3| |-3-| |-3| |-3-| |-3| |-3-| |-3| |-3-|  
  E  S S S S E  S S S S E  S S S S E  S S S S  
----------------------------------------------|
----------------------------------------------|
----------------------------------------------|
-------------3--------------------------------|
--3----------3----------3----------3----------|
--1--1-1-1-1----1-1-1-1-4--1-1-1-1-4--1-1-1-1-|


  |-3| |-3-| |-3| |-3-| |-3| |-3-| |-3| |-3-|  
  E  S S S S E  S S S S E  S S S S E  S S S S  
----------------------------------------------|
----------------------------------------------|
----------------------------------------------|
----------------------------------------------|
--2----------2----------3----------3----------|
--0--0-0-0-0-0--0-0-0-0-1--1-1-1-1-1--1-1-1-1-|


    |--3--|  |--3--|  |--3--|  |--3--|    
    E  E  E  E  E  E  E  E  E  E  E  E    
|----------------------------------------|
|----------------------------------------|
|*---------------------------------------|
|*-----------------------------------6S--|
|---8--------8--------8--------8-----4S--|
|---6--6--6--6--6--6--6--6--6--6--6------|


  |--3--|  |--3--|   |--3--|  |--3--|     
  E  E  E  E  E  E   E  E  E  E  E  E     
----------------------------------------||
----------------------------------------||
---------------------------------------*||
--8--------------6S--8-----------------*||
--6--------6-----4S--6--------6-----7---||
-----4--4--4--4---------4--4--4--4--5---||


  |--3--|  |--3--|   |--3--|  |--3--|   
  E  E  E  E  E  E   E  E  E  E  E  E   
---------------------------------------|
---------------------------------------|
---------------------------------------|
--8--------------6S--8-----------------|
--6--------6-----4S--6--------6-----7--|
-----4--4--4--4---------4--4--4--4--5--|


    |--3--|  |--3--|  |--3--|  |--3--|    
    E  E  E  E  E  E  E  E  E  E  E  E    
|----------------------------------------|
|----------------------------------------|
|*---------------------------------------|
|*-----------------------------------6S--|
|---8--------8--------8--------8-----4S--|
|---6--6--6--6--6--6--6--6--6--6--6------|


  |--3--|  |-3-| |3|   |--3--|  |-3-| |-3-|    
  E  E  E  S S S S E   E  E  E  S S S S S S    
---------------------------------------------||
---------------------------------------------||
--------------------------------------------*||
--8----------------6S--8--------------------*||
--6----------------4S--6---------------------||
-----4--4--4-4-4-4--------4--4--4-4-4-4-5-5--||


  |-3-| |-3-| |-3-| |-3-| |-3-| |-3-| |-3-| |-3-|  
  S S S S S S S S S S S S S S S S S S S S S S S S  
--------------------------------------------------|
--------------------------------------------------|
--------------------------------------------------|
--------------------------------------------------|
--6-6-6-6-6-6-------------6-6-6-6-6-6-------------|
--------------4-4-4-4-5-5-------------4-4-4-4-4-4-|


    |-3| |-3-| |-3| |-3-| |-3| |-3-| |--3--|   
    E  S S S S E  S S S S E  S S S S E  E  E   
|---------------------------------------------|
|---------------------------------------------|
|*--------------------------------------------|
|*-------------3------------------------------|
|---3----------1--1-1-1-1-6----------6--L--5--|
|---1--1-1-1-1------------4--4-4-4-4-4--L--3--|


  |-3| |-3-| |-3| |-3-| |-3| |-3-| |--3--|   
  E  S S S S E  S S S S E  S S S S E  E  E   
--------------------------------------------|
--------------------------------------------|
--------------------------------------------|
-------------3---------------------------2--|
--3----------1--1-1-1-1-6----------6--L--0--|
--1--1-1-1-1------------4--4-4-4-4-4--L-----|


  |-3| |-3-| |-3| |-3-| |-3| |-3-| |--3--|   
  E  S S S S E  S S S S E  S S S S E  E  E   
--------------------------------------------|
--------------------------------------------|
-------------3------------------------------|
--3----------1--1-1-1-1-6----------6--L--5--|
--1--1-1-1-1------------4--4-4-4-4-4--L--3--|
--------------------------------------------|


  |-3| |-3-| |-3| |-3-| |--3--|  |--3--|     
  E  S S S S E  S S S S E  E  E  E  E  E     
-------------------------------------------||
-------------------------------------------||
-------------3----------------------------*||
--3----------1--1-1-1-1-------------------*||
--1--1-1-1-1------------3--5--6--3---------||
------------------------1--3--4--1---------||


  |-3| |-3-| |-3| |-3-| |--3--|  |--3--|       |--3--|       |--3--|        
  E  S S S S E  S S S S E  E  E  E  E  E       E  E  E  Q    E  E  E  Q     
------------------------------------------||-------------------------------|
------------------------------------------||-------------------------------|
-------------3----------------------------||*------------------------------|
--3----------1--1-1-1-1-------------------||*------------------------------|
--1--1-1-1-1------------3--5--6--3--------||---3-----3--6----5--3-----3----|
------------------------1--3--4--1--------||------6----------------6-------|


  |--3--|  |--3--|  |--3--|            |--3--|  |--3--|  |--3--|        
  E  E  E  E  E  E  E  E  E  Q         E  E  E  E  E  E  E  E  E  Q     
-----------------------------------||----------------------------------|
-----------------------------------||----------------------------------|
----------------------------------*||----------------------------------|
-----------------3----------------*||-----------------3----------------|
--3-----3--6--L-----5--L-----3-----||--3-----3--6--L-----5--L-----3----|
-----6--------------------6--------||-----6--------------------6-------|


    |--3--|       |--3--|          |--3--|  |--3--|  |--3--|          
    E  E  E  Q    E  E  E  Q       E  E  E  E  E  E  E  E  E  Q       
|-------------------------------|-----------------------------------||
|-------------------------------|-----------------------------------||
|*------------------------------|----------------------------------*||
|*------------------------------|-----------------3----------------*||
|---3-----3--6----5--3-----3----|--3-----3--6--L-----5--L-----3-----||
|------6----------------6-------|-----6--------------------6--------||


   |--3--|       |--3--|          |--3--|  |--3--|  |--3--|          
   E  E  E  Q    E  E  E  Q       E  E  E  E  E  E  E  E  E  Q       
-------------------------------|-----------------------------------||
-------------------------------|-----------------------------------||
*------------------------------|-----------------3----------------*||
*--3-----3--6----5--3-----3----|--3-----3--6--L--3--5--L-----3----*||
---3--6--3--6----5--3--6--3----|--3--6--3--6--L-----5--L--6--3-----||
------6----------------6-------|-----6--------------------6--------||


   |--3--|       |--3--|          |--3--|  |--3--|  |--3--|          
   E  E  E  Q    E  E  E  Q       E  E  E  E  E  E  E  E  E  Q       
-------------------------------|-----------------------------------||
-------------------------------|-----------------------------------||
*------------------------------|-----------------3----------------*||
*--3-----3--6----5--3-----3----|--3-----3--6--L--3--5--L-----3----*||
---3--6--3--6----5--3--6--3----|--3--6--3--6--L-----5--L--6--3-----||
------6----------------6-------|-----6--------------------6--------||


  |--3--|  |--3--|  |--3--|        
  E  E  E  E  E  E  E  E  E  Q     
----------------------------------|
----------------------------------|
-----------------3----------------|
--3-----3--6--L--3--5--L-----3----|
--3--6--3--6--L-----5--L--6--3----|
-----6--------------------6-------|


     |--3--|  |--3--| |-3-| |-3-|  |--3--|  |-3-|  |--3--|  |--3--|  
     S  S  S  S  S  S S S S S S S  S  S  S  S S S  S  S  S  S  S  S  
|-------------------------------------------------------------------|
|-------------------------------------------------------------------|
|*--------------------------------10-10-10-10-8-8-------------------|
|*--10-10-10-10-10-10-8-8-8-8-8-8-----------------10-10-10-10-10-10-|
|-------------------------------------------------------------------|
|-------------------------------------------------------------------|


  |-3-| |-3-| |-3-| |-3-| |-3-| |-3-| |-3-| |-3-|    
  S S S S S S S S S S S S S S S S S S S S S S S S    
---------------------------------------------------||
---------------------------------------------------||
--------------------------------------------------*||
--6-6-6-6-6-6-8-8-8-8-8-8-5-5-5-5-----------------*||
----------------------------------6-6-8-8-8-8-8-8--||
---------------------------------------------------||


  |-3-| |-3-| |-3-| |-3-| |-3-| |-3-| |-3-| |-3-|  
  S S S S S S S S S S S S S S S S S S S S S S S S  
--------------------------------------------------|
--------------------------------------------------|
--------------------------------------------------|
--6-6-6-6-6-6-8-8-8-8-8-8-5-5-5-5-----------------|
----------------------------------6-6-8-8-8-8-8-8-|
--------------------------------------------------|


     |--3--|  |--3--| |-3-| |-3-|  |--3--|  |-3-|  |--3--|  |--3--|  
     S  S  S  S  S  S S S S S S S  S  S  S  S S S  S  S  S  S  S  S  
|-------------------------------------------------------------------|
|-------------------------------------------------------------------|
|*--------------------------------10-10-10-10-8-8-------------------|
|*--10-10-10-10-10-10-8-8-8-8-8-8-----------------10-10-10-10-10-10-|
|-------------------------------------------------------------------|
|-------------------------------------------------------------------|


  |-3-| |-3-| |-3-| |-3-| |-3-| |-3-| |-3-| |-3-|    
  S S S S S S S S S S S S S S S S S S S S S S S S    
---------------------------------------------------||
---------------------------------------------------||
--------------------------------------------------*||
--6-6-6-6-6-6-8-8-8-8-8-8-5-5-5-5-----------------*||
----------------------------------6-6-8-8-8-8-8-8--||
---------------------------------------------------||


  |-3-| |-3-| |-3-| |-3-| |-3-| |-3-|           |---3--|                 
  S S S S S S S S S S S S S S S S S S Q         E   E  E  H.             
--------------------------------------------|--------------------------||
--------------------------------------------|--------------------------||
--------------------------------------------|--------------------------||
--6-6-6-6-6-6-8-8-8-8-8-8-5-5-5-5-----------|--------------------------||
----------------------------------6-6-8S----|--(x)---------------------||
--------------------------------------------|--------------------------||



                                 


                                                                       Ensiferum
Rhythm guitar




                   |-3| |-3-| |-3| |-3-| |-3| |-3-| |-3| |-3-|  
     H             E  S S S S E  S S S S E  S S S S E  S S S S  
E||-----------||-----------------------------------------------|
B||-----------||-----------------------------------------------|
G||-----------||*----------------------------------------------|
D||-----------||*-------------3--------------------------------|
A||-----------||---3----------3----------3----------3----------|
E||-----------||---1--1-1-1-1----1-1-1-1-4--1-1-1-1-4--1-1-1-1-|


  |-3| |-3-| |-3| |-3-| |-3| |-3-| |-3| |-3-|  
  E  S S S S E  S S S S E  S S S S E  S S S S  
----------------------------------------------|
----------------------------------------------|
----------------------------------------------|
----------------------------------------------|
--2----------2----------3----------3----------|
--0--0-0-0-0-0--0-0-0-0-1--1-1-1-1-1--1-1-1-1-|


  |-3| |-3-| |-3| |-3-| |-3| |-3-| |-3| |-3-|  
  E  S S S S E  S S S S E  S S S S E  S S S S  
----------------------------------------------|
----------------------------------------------|
----------------------------------------------|
-------------3--------------------------------|
--3----------3----------3----------3----------|
--1--1-1-1-1----1-1-1-1-4--1-1-1-1-4--1-1-1-1-|


  |-3| |-3-| |-3| |-3-| |-3| |-3-| |-3| |-3-|    
  E  S S S S E  S S S S E  S S S S E  S S S S    
-----------------------------------------------||
-----------------------------------------------||
----------------------------------------------*||
----------------------------------------------*||
--2----------2----------3----------3-----------||
--0--0-0-0-0-0--0-0-0-0-1--1-1-1-1-1--1-1-1-1--||


  |-3| |-3-| |-3| |-3-| |-3| |-3-| |-3| |-3-|  
  E  S S S S E  S S S S E  S S S S E  S S S S  
----------------------------------------------|
----------------------------------------------|
----------------------------------------------|
----------------------------------------------|
--2----------2----------3----------3----------|
--0--0-0-0-0-0--0-0-0-0-1--1-1-1-1-1--1-1-1-1-|


    |-3| |-3-| |-3| |-3-| |-3| |-3-| |-3| |-3-|  
    E  S S S S E  S S S S E  S S S S E  S S S S  
|-----------------------------------------------|
|-----------------------------------------------|
|*-------------3--------------------------------|
|*--3----------3----------3----------3----------|
|---1--1-1-1-1----1-1-1-1-4--1-1-1-1-4--1-1-1-1-|
|-----------------------------------------------|


  |-3| |-3-| |-3| |-3-| |-3| |-3-| |-3| |-3-|    
  E  S S S S E  S S S S E  S S S S E  S S S S    
-----------------------------------------------||
-----------------------------------------------||
----------------------------------------------*||
--2----------2----------3----------3----------*||
--0--0-0-0-0-0--0-0-0-0-1--1-1-1-1-1--1-1-1-1--||
-----------------------------------------------||


  |-3| |-3-| |-3| |-3-| |-3| |-3-| |-3| |-3-|  
  E  S S S S E  S S S S E  S S S S E  S S S S  
----------------------------------------------|
----------------------------------------------|
----------------------------------------------|
--2----------2----------3----------3----------|
--0--0-0-0-0-0--0-0-0-0-1--1-1-1-1-1--1-1-1-1-|
----------------------------------------------|


    |-3| |-3-| |-3| |-3-| |-3| |-3-| |-3| |-3-|  
    E  S S S S E  S S S S E  S S S S E  S S S S  
|-----------------------------------------------|
|-----------------------------------------------|
|*-------------3--------------------------------|
|*--3----------3----------3----------3----------|
|---1--1-1-1-1----1-1-1-1-4--1-1-1-1-4--1-1-1-1-|
|-----------------------------------------------|


  |-3| |-3-| |-3| |-3-| |-3| |-3-| |-3| |-3-|    
  E  S S S S E  S S S S E  S S S S E  S S S S    
-----------------------------------------------||
-----------------------------------------------||
----------------------------------------------*||
--2----------2----------3----------3----------*||
--0--0-0-0-0-0--0-0-0-0-1--1-1-1-1-1--1-1-1-1--||
-----------------------------------------------||


  |-3| |-3-| |-3| |-3-| |-3| |-3-| |-3| |-3-|  
  E  S S S S E  S S S S E  S S S S E  S S S S  
----------------------------------------------|
----------------------------------------------|
----------------------------------------------|
--2----------2----------3----------3----------|
--0--0-0-0-0-0--0-0-0-0-1--1-1-1-1-1--1-1-1-1-|
----------------------------------------------|


    |-3| |-3-| |-3| |-3-| |-3| |-3-| |-3| |-3-|  
    E  S S S S E  S S S S E  S S S S E  S S S S  
|-----------------------------------------------|
|-----------------------------------------------|
|*----------------------------------------------|
|*-------------3--------------------------------|
|---3----------3----------3----------3----------|
|---1--1-1-1-1----1-1-1-1-4--1-1-1-1-4--1-1-1-1-|


  |-3| |-3-| |-3| |-3-| |-3| |-3-| |-3| |-3-|  
  E  S S S S E  S S S S E  S S S S E  S S S S  
----------------------------------------------|
----------------------------------------------|
----------------------------------------------|
----------------------------------------------|
--2----------2----------3----------3----------|
--0--0-0-0-0-0--0-0-0-0-1--1-1-1-1-1--1-1-1-1-|


  |-3| |-3-| |-3| |-3-| |-3| |-3-| |-3| |-3-|  
  E  S S S S E  S S S S E  S S S S E  S S S S  
----------------------------------------------|
----------------------------------------------|
----------------------------------------------|
-------------3--------------------------------|
--3----------3----------3----------3----------|
--1--1-1-1-1----1-1-1-1-4--1-1-1-1-4--1-1-1-1-|


  |-3| |-3-| |-3| |-3-| |-3| |-3-| |-3| |-3-|    
  E  S S S S E  S S S S E  S S S S E  S S S S    
-----------------------------------------------||
-----------------------------------------------||
----------------------------------------------*||
----------------------------------------------*||
--2----------2----------3----------3-----------||
--0--0-0-0-0-0--0-0-0-0-1--1-1-1-1-1--1-1-1-1--||


  |-3| |-3-| |-3| |-3-| |-3| |-3-| |-3| |-3-|  
  E  S S S S E  S S S S E  S S S S E  S S S S  
----------------------------------------------|
----------------------------------------------|
----------------------------------------------|
----------------------------------------------|
--2----------2----------3----------3----------|
--0--0-0-0-0-0--0-0-0-0-1--1-1-1-1-1--1-1-1-1-|


  |--3--|  |--3--|  |--3--|  |--3--|     |--3--|  |--3--|  |--3--|  |--3--|   
  E  E  E  E  E  E  E  E  E  E  E  E     E  E  E  E  E  E  E  E  E  E  E  E   
--------------------------------------|--------------------------------------|
--------------------------------------|--------------------------------------|
--------------------------------------|--------------------------------------|
-----------5--5--5-----------------1--|-----------5--5--5--------------------|
--3--3--3--3--3--3--3--3--3--3-----1--|--3--3--3--3--3--3--3-----3--3--------|
--1--1--1-----------1--1--1--1--------|--1--1--1-----------1-----1--1--------|


  |-3| |-3-| |--3--|  |-3| |-3-| |--3--|   
  E  S S S S E  E  E  E  S S S S E  E  E   
------------------------------------------|
------------------------------------------|
------------------------------------------|
----------------5--5----------------1--1--|
--3----------3--3--3--3----------3--1--1--|
--1--1-1-1-1-1--------1--1-1-1-1-1--------|


  |-3| |-3-| |--3--|  |-3| |-3-| |--3--|       |--3--|       |--3--|        
  E  S S S S E  E  E  E  S S S S E  E  E       E  E  E  Q    E  E  E  Q     
------------------------------------------||-------------------------------|
------------------------------------------||-------------------------------|
------------------------------------------||*------------------------------|
----------------5--5----------------------||*-----------1----3-------------|
--3----------3--3--3--3----------3--------||---3--------1----1--------3----|
--1--1-1-1-1-1--------1--1-1-1-1-1--------||---1----------------------1----|


  |--3--|       |--3--|            |--3--|       |--3--|        
  E  E  E  Q    E  E  E  Q         E  E  E  Q    E  E  E  Q     
-------------------------------||------------------------------|
-------------------------------||------------------------------|
------------------------------*||------------------------------|
-----------1----3-------------*||-----------1----3-------------|
--3--------1----1--------6-----||--3--------1----1--------6----|
--1----------------------4-----||--1----------------------4----|


    |-3-| |-3-| |-3-| |-3-| |-3-| |-3-| |-3-| |-3-|  
    S S S S S S S S S S S S S S S S S S S S S S S S  
|---------------------------------------------------|
|---------------------------------------------------|
|*--------------------------------------------------|
|*--------------------------8-8-8-8-6-6-------------|
|---8-8-8-8-8-8-6-6-6-6-6-6-------------8-8-8-8-8-8-|
|---------------------------------------------------|


  |-3-| |-3-| |-3-| |-3-| |-3-| |-3-| |-3-| |-3-|    
  S S S S S S S S S S S S S S S S S S S S S S S S    
---------------------------------------------------||
---------------------------------------------------||
--------------------------------------------------*||
--------------------------------------------------*||
--8-8-8-8-8-8-6-6-6-6-6-6-6-6-6-6-6-6-8-8-8-8-8-8--||
---------------------------------------------------||


  |-3-| |-3-| |-3-| |-3-| |-3-| |-3-| |-3-| |-3-|  
  S S S S S S S S S S S S S S S S S S S S S S S S  
--------------------------------------------------|
--------------------------------------------------|
--------------------------------------------------|
--------------------------------------------------|
--8-8-8-8-8-8-6-6-6-6-6-6-6-6-6-6-6-6-8-8-8-8-8-8-|
--------------------------------------------------|


    |--3--|       |--3--|          |--3--|       |--3--|          
    E  E  E  Q    E  E  E  Q       E  E  E  Q    E  E  E  Q       
|-------------------------------|-------------------------------||
|-------------------------------|-------------------------------||
|*------------------------------|------------------------------*||
|*-----------1----3-------------|-----------1----3-------------*||
|---3--------1----1--------3----|--3--------1----1--------6-----||
|---1----------------------1----|--1----------------------4-----||


   |--3--|  |--3--|  |--3--|  |--3--|     |--3--|  |--3--|               
   E  E  E  E  E  E  E  E  E  E  E  E     E  E  E  E  E  E  Q    Q       
---------------------------------------|-------------------------------||
---------------------------------------|-------------------------------||
*--------------------------------------|------------------------------*||
*-----------1--1--1--3-----------------|-----------1--1--1--3---------*||
---3--------1--1--1--1--------3--3--3--|--3--------1--1--1--1----6-----||
---1--------------------------1--1--1--|--1----------------------4-----||


  |--3--|  |--3--|                 |-3| |-3-| |-3| |-3-| |-3| |-3-| |-3| |-3-|  
  E  E  E  E  E  E  Q    Q         E  S S S S E  S S S S E  S S S S E  S S S S  
------------------------------||-----------------------------------------------|
------------------------------||-----------------------------------------------|
------------------------------||*----------------------------------------------|
-----------1--1--1--3---------||*-------------3--------------------------------|
--3--------1--1--1--1----6----||---3----------3----------3----------3----------|
--1----------------------4----||---1--1-1-1-1----1-1-1-1-4--1-1-1-1-4--1-1-1-1-|


  |-3| |-3-| |-3| |-3-| |-3| |-3-| |-3| |-3-|    
  E  S S S S E  S S S S E  S S S S E  S S S S    
-----------------------------------------------||
-----------------------------------------------||
----------------------------------------------*||
----------------------------------------------*||
--2----------2----------3----------3-----------||
--0--0-0-0-0-0--0-0-0-0-1--1-1-1-1-1--1-1-1-1--||


  |-3| |-3-| |-3| |-3-| |-3| |-3-| |-3| |-3-|  
  E  S S S S E  S S S S E  S S S S E  S S S S  
----------------------------------------------|
----------------------------------------------|
-------------3--------------------------------|
--3----------3----------3----------3----------|
--1--1-1-1-1----1-1-1-1-4--1-1-1-1-4--1-1-1-1-|
----------------------------------------------|


  |-3| |-3-| |-3| |-3-| |-3| |-3-| |-3| |-3-|  
  E  S S S S E  S S S S E  S S S S E  S S S S  
----------------------------------------------|
----------------------------------------------|
----------------------------------------------|
--2----------2----------3----------3----------|
--0--0-0-0-0-0--0-0-0-0-1--1-1-1-1-1--1-1-1-1-|
----------------------------------------------|


  |-3| |-3-| |-3| |-3-| |-3| |-3-| |-3| |-3-|  
  E  S S S S E  S S S S E  S S S S E  S S S S  
----------------------------------------------|
----------------------------------------------|
-------------3--------------------------------|
--3----------3----------3----------3----------|
--1--1-1-1-1----1-1-1-1-4--1-1-1-1-4--1-1-1-1-|
----------------------------------------------|


  |-3| |-3-| |-3| |-3-| |-3| |-3-| |-3| |-3-|  
  E  S S S S E  S S S S E  S S S S E  S S S S  
----------------------------------------------|
----------------------------------------------|
----------------------------------------------|
--2----------2----------3----------3----------|
--0--0-0-0-0-0--0-0-0-0-1--1-1-1-1-1--1-1-1-1-|
----------------------------------------------|


    |-3| |-3-| |-3| |-3-| |-3| |-3-| |-3| |-3-|  
    E  S S S S E  S S S S E  S S S S E  S S S S  
|-----------------------------------------------|
|-----------------------------------------------|
|*----------------------------------------------|
|*-------------3--------------------------------|
|---3----------3----------3----------3----------|
|---1--1-1-1-1----1-1-1-1-4--1-1-1-1-4--1-1-1-1-|


  |-3| |-3-| |-3| |-3-| |-3| |-3-| |-3| |-3-|    
  E  S S S S E  S S S S E  S S S S E  S S S S    
-----------------------------------------------||
-----------------------------------------------||
----------------------------------------------*||
----------------------------------------------*||
--2----------2----------3----------3-----------||
--0--0-0-0-0-0--0-0-0-0-1--1-1-1-1-1--1-1-1-1--||


  |-3| |-3-| |-3| |-3-| |-3| |-3-| |-3| |-3-|  
  E  S S S S E  S S S S E  S S S S E  S S S S  
----------------------------------------------|
----------------------------------------------|
----------------------------------------------|
----------------------------------------------|
--2----------2----------3----------3----------|
--0--0-0-0-0-0--0-0-0-0-1--1-1-1-1-1--1-1-1-1-|


  |--3--|  |--3--|  |--3--|  |--3--|     |--3--|  |--3--|  |--3--|  |--3--|   
  E  E  E  E  E  E  E  E  E  E  E  E     E  E  E  E  E  E  E  E  E  E  E  E   
--------------------------------------|--------------------------------------|
--------------------------------------|--------------------------------------|
--------------------------------------|--------------------------------------|
-----------5--5--5-----------------1--|-----------5--5--5--------------------|
--3--3--3--3--3--3--3--3--3--3-----1--|--3--3--3--3--3--3--3-----3--3--------|
--1--1--1-----------1--1--1--1--------|--1--1--1-----------1-----1--1--------|


  |-3| |-3-| |--3--|  |-3| |-3-| |--3--|   
  E  S S S S E  E  E  E  S S S S E  E  E   
------------------------------------------|
------------------------------------------|
------------------------------------------|
----------------5--5----------------1--1--|
--3----------3--3--3--3----------3--1--1--|
--1--1-1-1-1-1--------1--1-1-1-1-1--------|


  |-3| |-3-| |--3--|  |-3| |-3-| |--3--|       |--3--|       |--3--|        
  E  S S S S E  E  E  E  S S S S E  E  E       E  E  E  Q    E  E  E  Q     
------------------------------------------||-------------------------------|
------------------------------------------||-------------------------------|
------------------------------------------||*------------------------------|
----------------5--5----------------------||*-----------1----3-------------|
--3----------3--3--3--3----------3--------||---3--------1----1--------3----|
--1--1-1-1-1-1--------1--1-1-1-1-1--------||---1----------------------1----|


  |--3--|       |--3--|            |--3--|       |--3--|        
  E  E  E  Q    E  E  E  Q         E  E  E  Q    E  E  E  Q     
-------------------------------||------------------------------|
-------------------------------||------------------------------|
------------------------------*||------------------------------|
-----------1----3-------------*||-----------1----3-------------|
--3--------1----1--------6-----||--3--------1----1--------6----|
--1----------------------4-----||--1----------------------4----|


    |-3-| |-3-| |-3-| |-3-| |-3-| |-3-| |-3-| |-3-|  
    S S S S S S S S S S S S S S S S S S S S S S S S  
|---------------------------------------------------|
|---------------------------------------------------|
|*--------------------------------------------------|
|*--------------------------8-8-8-8-6-6-------------|
|---8-8-8-8-8-8-6-6-6-6-6-6-------------8-8-8-8-8-8-|
|---------------------------------------------------|


  |-3-| |-3-| |-3-| |-3-| |-3-| |-3-| |-3-| |-3-|    
  S S S S S S S S S S S S S S S S S S S S S S S S    
---------------------------------------------------||
---------------------------------------------------||
--------------------------------------------------*||
--------------------------------------------------*||
--8-8-8-8-8-8-6-6-6-6-6-6-6-6-6-6-6-6-8-8-8-8-8-8--||
---------------------------------------------------||


  |-3-| |-3-| |-3-| |-3-| |-3-| |-3-| |-3-| |-3-|  
  S S S S S S S S S S S S S S S S S S S S S S S S  
--------------------------------------------------|
--------------------------------------------------|
--------------------------------------------------|
--------------------------------------------------|
--8-8-8-8-8-8-6-6-6-6-6-6-6-6-6-6-6-6-8-8-8-8-8-8-|
--------------------------------------------------|


    |--3--|       |--3--|          |--3--|       |--3--|          
    E  E  E  Q    E  E  E  Q       E  E  E  Q    E  E  E  Q       
|-------------------------------|-------------------------------||
|-------------------------------|-------------------------------||
|*------------------------------|------------------------------*||
|*-----------1----3-------------|-----------1----3-------------*||
|---3--------1----1--------3----|--3--------1----1--------6-----||
|---1----------------------1----|--1----------------------4-----||


   |--3--|  |--3--|  |--3--|  |--3--|     |--3--|  |--3--|               
   E  E  E  E  E  E  E  E  E  E  E  E     E  E  E  E  E  E  Q    Q       
---------------------------------------|-------------------------------||
---------------------------------------|-------------------------------||
*--------------------------------------|------------------------------*||
*-----------1--1--1--3-----------------|-----------1--1--1--3---------*||
---3--------1--1--1--1--------3--3--3--|--3--------1--1--1--1----6-----||
---1--------------------------1--1--1--|--1----------------------4-----||


  |--3--|  |--3--|             
  E  E  E  E  E  E  Q    Q     
------------------------------|
------------------------------|
------------------------------|
-----------1--1--1--3---------|
--3--------1--1--1--1----6----|
--1----------------------4----|


  Guitar Solo                                       
  |-------3------|  |--3--|  |-3| |--3--| |--3--|   
  E           E  E  E  E  E  E  S S  S  S E  E  E   
---------------------------------------------------|
---------------------------------------------------|
---------------------------------------------------|
---------------------------------------------------|
--------------------3--L--5--6--L-5h-6p-5-2--L--3--|
--1-----------3--4---------------------------------|


  |--3--|   |--3--|                 
  E  E  E   E  E  E   Q      Q      
-----------------------------------|
-----------------------------------|
------------------9--10S----(x)----|
---------------9-------------------|
--7--L--7--10----------------------|
-----------------------------------|


   |---3--|  |--3--|  |--3--|  |--3-|  |---3--|  |--3--|         
   S   S  S  S  S  S  S  S  S  S  S S  S   S  S  S  S  S  Q      
--------------------------------------16p-13--------------------|
---------------------13p-9----------9--------13-----------------|
--13p-10----------10-------10----10-------------13--------------|
---------10----10-------------10-------------------15-----------|
------------11----------------------------------------15--------|
---------------------------------------------------------13~----|


   |---3---|   |---3---|              
   E   E   E   E   E   E   Q    Q     
-------------------------------------|
-------------------------------------|
-------------------------------------|
-------------------------------------|
--------------14---------------------|
--12---L--15------12--15--13---------|


  |-3-| |--3--| |--3-|  |--3--|  |--3--| |--3--|  |--3-|  |--3--|  
  S S S S  S  S S  S S  S  S  S  S  S  S S  S  S  S S  S  S  S  S  
--------------------------------12-13-12-9----------9-------------|
-----------------------------11------------13-11-13---13-10-------|
----------------9----9-10-12--------------------------------11-10-|
--------8-10-11---11----------------------------------------------|
--9-8-9-----------------------------------------------------------|
------------------------------------------------------------------|


  |--3-|  |--3-|  |--3--| |--3--| |---3--|   |---3--|           
  S  S S  S  S S  S  S  S S  S  S S   S  S   S  S   S E.    S   
---------------------------------------------------------------|
---------------------------------------------------------------|
--9-10-9--------------------------9h-10p-9h-10p-9h-10-9S---(x)-|
---------11-10-8-10-11-10-8-10-11------------------------------|
---------------------------------------------------------------|
---------------------------------------------------------------|


   |--3--|  |--3--|  |---3--|  |--3--|  |--3--|  |--3--|  |--3--|  |--3--|  
   S  S  S  S  S  S  S   S  S  S  S  S  S  S  S  S  S  S  S  S  S  S  S  S  
-----------------13-18p-13----------13-14-13-11----------------------------|
--------------14-----------14----14-------------14-13-11-------------------|
-----------15-----------------15-------------------------14-11-------------|
--------15-----------------------------------------------------15-13-11----|
--13-16-----------------------------------------------------------------15-|
---------------------------------------------------------------------------|


   |--3--|  |--3--|  |-3-|   |---3---|             
   S  S  S  S  S  S  E   S   S   S   S  Q    Q     
--------------------------------------------------|
--------------------------------------------------|
-----------13-15-17-18--17h-18p-17p-14-15---------|
--13-15-16----------------------------------------|
--------------------------------------------------|
--------------------------------------------------|


   |-3-|   |---3---|  |-3-|   |---3---|  |-3-|   |---3---|         
   E   S   S   S   S  E   S   S   S   S  E   S   S   S   S  Q      
------------------------------------------------------------------|
--16--15h-16p-15S-13-15--13h-15p-13S-12-13--12h-13p-12S-10--------|
-----------------------------------------------------------10~----|
------------------------------------------------------------------|
------------------------------------------------------------------|
------------------------------------------------------------------|


  Q     Q      H          
-------19b----20~--------|
-------------------------|
--9----------------------|
-------------------------|
-------------------------|
-------------------------|


   |--3--|  |--3--|  |--3--|  |--3--|  |--3--|  |--3--|  |--3--|  |--3--|  
   S  S  S  S  S  S  S  S  S  S  S  S  S  S  S  S  S  S  S  S  S  S  S  S  
--16-18-16-15----15-16-15-------------------------------------------------|
--------------18----------18-17-14----14----------------------------------|
-----------------------------------17----17-15-13----13-15-13-------------|
--------------------------------------------------17----------17-15-14----|
-----------------------------------------------------------------------16-|
--------------------------------------------------------------------------|


  |--3-| |-3-|  |--3-| |--3-|            
  S  S S S S S  S  S S S S  S H          
-------------7-12p-7--------------------|
-----------8---------8------------------|
---------9-------------9----------------|
-------9-----------------9--------------|
--7-10---------------------10-8~--------|
----------------------------------------|


    |--3--|  |--3--|  |--3--|  |--3--|    
    E  E  E  E  E  E  E  E  E  E  E  E    
|----------------------------------------|
|----------------------------------------|
|*---------------------------------------|
|*-----------------------------------6S--|
|---8--------8--------8--------8-----4S--|
|---6--6--6--6--6--6--6--6--6--6--6------|


  |--3--|  |--3--|   |--3--|  |--3--|     
  E  E  E  E  E  E   E  E  E  E  E  E     
----------------------------------------||
----------------------------------------||
---------------------------------------*||
--8--------------6S--8-----------------*||
--6--------6-----4S--6--------6-----7---||
-----4--4--4--4---------4--4--4--4--5---||


  |--3--|  |--3--|   |--3--|  |--3--|   
  E  E  E  E  E  E   E  E  E  E  E  E   
---------------------------------------|
---------------------------------------|
---------------------------------------|
--8--------------6S--8-----------------|
--6--------6-----4S--6--------6-----7--|
-----4--4--4--4---------4--4--4--4--5--|


    |--3--|  |--3--|  |--3--|  |--3--|    
    E  E  E  E  E  E  E  E  E  E  E  E    
|----------------------------------------|
|----------------------------------------|
|*---------------------------------------|
|*-----------------------------------6S--|
|---8--------8--------8--------8-----4S--|
|---6--6--6--6--6--6--6--6--6--6--6------|


  |--3--|  |-3-| |3|   |--3--|  |-3-| |-3-|    
  E  E  E  S S S S E   E  E  E  S S S S S S    
---------------------------------------------||
---------------------------------------------||
--------------------------------------------*||
--8----------------6S--8--------------------*||
--6----------------4S--6---------------------||
-----4--4--4-4-4-4--------4--4--4-4-4-4-5-5--||


  |-3-| |-3-| |-3-| |-3-| |-3-| |-3-| |-3-| |-3-|  
  S S S S S S S S S S S S S S S S S S S S S S S S  
--------------------------------------------------|
--------------------------------------------------|
--------------------------------------------------|
--------------------------------------------------|
--6-6-6-6-6-6-------------6-6-6-6-6-6-------------|
--------------4-4-4-4-5-5-------------4-4-4-4-4-4-|


    |-3| |-3-| |-3| |-3-| |-3| |-3-| |--3--|   
    E  S S S S E  S S S S E  S S S S E  E  E   
|---------------------------------------------|
|---------------------------------------------|
|*--------------------------------------------|
|*-------------3------------------------------|
|---3----------1--1-1-1-1-6----------6--L--5--|
|---1--1-1-1-1------------4--4-4-4-4-4--L--3--|


  |-3| |-3-| |-3| |-3-| |-3| |-3-| |--3--|   
  E  S S S S E  S S S S E  S S S S E  E  E   
--------------------------------------------|
--------------------------------------------|
--------------------------------------------|
-------------3---------------------------2--|
--3----------1--1-1-1-1-6----------6--L--0--|
--1--1-1-1-1------------4--4-4-4-4-4--L-----|


  |-3| |-3-| |-3| |-3-| |-3| |-3-| |--3--|   
  E  S S S S E  S S S S E  S S S S E  E  E   
--------------------------------------------|
--------------------------------------------|
-------------3------------------------------|
--3----------1--1-1-1-1-6----------6--L--5--|
--1--1-1-1-1------------4--4-4-4-4-4--L--3--|
--------------------------------------------|


  |-3| |-3-| |-3| |-3-| |--3--|  |--3--|     
  E  S S S S E  S S S S E  E  E  E  E  E     
-------------------------------------------||
-------------------------------------------||
-------------3----------------------------*||
--3----------1--1-1-1-1-------------------*||
--1--1-1-1-1------------3--5--6--3---------||
------------------------1--3--4--1---------||


  |-3| |-3-| |-3| |-3-| |--3--|  |--3--|       |--3--|       |--3--|        
  E  S S S S E  S S S S E  E  E  E  E  E       E  E  E  Q    E  E  E  Q     
------------------------------------------||-------------------------------|
------------------------------------------||-------------------------------|
-------------3----------------------------||*------------------------------|
--3----------1--1-1-1-1-------------------||*-----------1----3-------------|
--1--1-1-1-1------------3--5--6--3--------||---3--------1----1--------3----|
------------------------1--3--4--1--------||---1----------------------1-
Добавлено: 29.07.2012
Другие материалы по этой песне:

Страница создана 09.03.2012
http://primanota.ru/ensiferum/goblins-dance-chords.htm
Привет, Гость.
Предлагаем пройти революционный курс по гитаре.
Подарок от PrimaNota.Ru, забирай!