PrimaNota.ru - самый крупный в мире бесплатный архив песенных текстов, аккордов, табулатур и нот


Ensiferum - Ferrum Aeternum - таба, видео

Регистрация Запомнить меня
Войти через:  Facebook Google Twitter Vk Yandex Mail.ru

Ensiferum - Ferrum Aeternum - таба, видео

Печатать
Просмотров: 218
                                Ferrum Aeternum                                 


                                                                       Ensiferum
Lead Guitar



     H        Q    Q        H         H            Q     Q     Q     Q     
E||---------------------|----------------------|--------------------------|
B||---------------------|----------------------|--------------------------|
G||---------------------|----------------------|--------------------------|
D||---------------------|----------------------|--------------------------|
A||--7--------7----9----|--10--------10--------|--10----12----14----10----|
E||---------------------|----------------------|--------------------------|


  H        H           H        H           Q     Q     H         
--------------------|--------------------|-----------------------|
--------------------|--------------------|-----------------------|
--------------------|--------------------|-----------------------|
--------------------|--------------------|-----------------------|
--9--------9--------|--7--------7--------|--9----10----12--------|
--------------------|--------------------|-----------------------|


  H.           Q       W                   H        Q    Q     
--------------------|-------------------|---------------------|
--------------------|-------------------|---------------------|
--------------------|-------------------|---------------------|
--------------------|-------------------|---------------------|
--7------------5----|--7----------------|--7--------7----9----|
--------------------|-------------------|---------------------|


   H         H            Q     Q     Q     Q       H        Q     E  E   
----------------------|--------------------------|-----------------------|
----------------------|--------------------------|-----------------------|
----------------------|--------------------------|-----------------------|
----------------------|--------------------------|-----------------------|
--10--------10--------|--10----12----14----10----|--9--------9----10--9--|
----------------------|--------------------------|-----------------------|


  H        Q.     E     Q     Q     Q    E  E     H.           Q     
---------------------|-------------------------|--------------------|
---------------------|-------------------------|--------------------|
---------------------|-------------------------|--------------------|
---------------------|-------------------------|--------------------|
--7--------7------7--|--9----10----12----7--5--|--7------------5----|
---------------------|-------------------------|--------------------|


  Q    Q     Q     Q       H        Q     Q        H         H         
------------------------|----------------------|----------------------|
------------------------|----------------------|----------------------|
-------9----------------|--9--------9----11----|--12--------12--------|
------------------12----|----------------------|----------------------|
--7---------14----------|----------------------|----------------------|
------------------------|----------------------|----------------------|


   Q     Q     Q     Q        H         Q     E   E     H        Q.     E   
--------------------------|--------------------------|---------------------|
--------10----12----------|--------------------------|---------------------|
--12----------------12----|--11--------11----12--11--|--9--------9------9--|
--------------------------|--------------------------|---------------------|
--------------------------|--------------------------|---------------------|
--------------------------|--------------------------|---------------------|


   Q     Q     Q     Q        H         E   E   Q       H         Q     Q     
--------------------------|--------------------------|-----------------------|
--------------10----12----|----------------10--------|-----------12----------|
--11----12----------------|--12--------12------11----|--9--------------------|
--------------------------|--------------------------|-----------------12----|
--------------------------|--------------------------|-----------------------|
--------------------------|--------------------------|-----------------------|


  H        Q     Q        H         H            Q     Q     Q     Q     
----------------------|----------------------|--------------------------|
----------------------|----------------------|--------10----12----------|
--9--------9----11----|--12--------12--------|--12----------------12----|
----------------------|----------------------|--------------------------|
----------------------|----------------------|--------------------------|
----------------------|----------------------|--------------------------|


   Q.     E   Q     E   E     H         Q     Q        Q     Q     H         
---------------------------|-----------------------|------------------------|
---------------------------|-----------10----------|--------------10--------|
--11------9--11----12--11--|--9--------------12----|--11----12--------------|
---------------------------|-----------------------|------------------------|
---------------------------|-----------------------|------------------------|
---------------------------|-----------------------|------------------------|


   W                   W                   H        Q    Q     
--------------------|-------------------|---------------------|
--12----------------|--L----------------|---------------------|
--------------------|-------------------|---------------------|
--------------------|-------------------|--2--------2----4----|
--------------------|-------------------|---------------------|
--------------------|-------------------|---------------------|


  W                   H        Q    Q       Q    Q    Q     Q     
-------------------|---------------------|-----------------------|
-------------------|---------------------|-----------------------|
-------------------|---------------------|-----------------------|
--2----------------|--2--------2----4----|--5----2----4s----0----|
-------------------|---------------------|-----------------------|
-------------------|---------------------|-----------------------|


  H        E  E  Q       W                   H        Q    Q     
----------------------|-------------------|---------------------|
----------------------|-------------------|---------------------|
----------------------|-------------------|---------------------|
--2--------2--4--0----|-------------------|--2--------4---------|
----------------------|--2----------------|----------------2----|
----------------------|-------------------|---------------------|


  Q    Q    Q    Q       H        Q.     E     Q    Q    H         
----------------------|---------------------|---------------------|
----------------------|-----------8------8--|--7------------------|
----------------------|--5------------------|-------9----9--------|
--4----5----4----2----|---------------------|---------------------|
----------------------|---------------------|---------------------|
----------------------|---------------------|---------------------|


  Q    E  E  Q    Q       W                   H        Q.     E   
-----------------------|-------------------|---------------------|
------------------7----|-------------------|-----------8------8--|
--7-------7--9---------|--9----------------|--5------------------|
-------9---------------|-------------------|---------------------|
-----------------------|-------------------|---------------------|
-----------------------|-------------------|---------------------|


  Q    Q    H           Q    Q    Q    Q       Q.     E  H         
---------------------|----------------------|---------------------|
--7------------------|-----------------7----|---------7-----------|
-------9----9--------|--7---------9---------|--9---------9--------|
---------------------|-------9--------------|---------------------|
---------------------|----------------------|---------------------|
---------------------|----------------------|---------------------|


  H        Q.     E     Q    Q    H           Q    E  E  Q    Q     
---------------------|---------------------|-----------------------|
-----------8------8--|--7------------------|------------------7----|
--5------------------|-------9----9--------|--7-------7--9---------|
---------------------|---------------------|-------9---------------|
---------------------|---------------------|-----------------------|
---------------------|---------------------|-----------------------|


  H.           Q       H        Q.     E     Q    Q    H         
--------------------|---------------------|---------------------|
--------------------|-----------8------8--|--7------------------|
--9------------7----|--5------------------|-------9----9--------|
--------------------|---------------------|---------------------|
--------------------|---------------------|---------------------|
--------------------|---------------------|---------------------|


  Q    E  E  Q    E  E     H.           Q       H        Q.     E   
------------------------|--------------------|---------------------|
-------------7----------|---------------7----|-----------8------8--|
--7-------7-------9--7--|--9-----------------|--5------------------|
-------9----------------|--------------------|---------------------|
------------------------|--------------------|---------------------|
------------------------|--------------------|---------------------|


  Q    E  E  H            Q    E   E   Q     Q        H.            Q     
----------------------|---------------------------|----------------------|
--7-------------------|--10----8--10--13----12----|--10------------12----|
-------9--7--9--------|---------------------------|----------------------|
----------------------|---------------------------|----------------------|
----------------------|---------------------------|----------------------|
----------------------|---------------------------|----------------------|


  H        Q.     E     Q     E  E  H            Q     E   E   Q     Q     
---------------------|-----------------------|----------------10----------|
-----------8------8--|--7----10--7--8--------|--12--------12--------10----|
--5------------------|-----------------------|--------12------------------|
---------------------|-----------------------|----------------------------|
---------------------|-----------------------|----------------------------|
---------------------|-----------------------|----------------------------|


   H         H           H        Q.     E     Q    Q    H         
----------------------|---------------------|---------------------|
--12------------------|-----------8------8--|--7------------------|
------------12--------|--5------------------|-------9----7--------|
----------------------|---------------------|---------------------|
----------------------|---------------------|---------------------|
----------------------|---------------------|---------------------|


  Q    E  E  Q    E  E     H.           Q       H        Q.     E   
------------------------|--------------------|---------------------|
-------------7----------|--------------------|-----------8------8--|
--9----9--9-------9--7--|--9------------7----|--5------------------|
------------------------|--------------------|---------------------|
------------------------|--------------------|---------------------|
------------------------|--------------------|---------------------|


  Q    E  E  H            Q    E   E  Q    Q       W                         
----------------------|-------------------------|-------------------|-------|
--7-------------------|--10----8--10------------|-------------------|-------|
-------9--7--9--------|---------------9----7----|--9----------------|-------|
----------------------|-------------------------|-------------------|-------|
----------------------|-------------------------|-------------------|-------|
----------------------|-------------------------|-------------------|-------|


-------|-------|-------|-------|-------|-------|-------|-------|-------|-------|
-------|-------|-------|-------|-------|-------|-------|-------|-------|-------|
-------|-------|-------|-------|-------|-------|-------|-------|-------|-------|
-------|-------|-------|-------|-------|-------|-------|-------|-------|-------|
-------|-------|-------|-------|-------|-------|-------|-------|-------|-------|
-------|-------|-------|-------|-------|-------|-------|-------|-------|-------|


                                          H        Q.     E   
-------|-------|-------|-------|-------|---------------------|
-------|-------|-------|-------|-------|-----------8------8--|
-------|-------|-------|-------|-------|--5------------------|
-------|-------|-------|-------|-------|---------------------|
-------|-------|-------|-------|-------|---------------------|
-------|-------|-------|-------|-------|---------------------|


  Q    Q    H           Q    E  E  Q    Q       W                 
---------------------|-----------------------|-------------------|
--7------------------|------------------7----|-------------------|
-------9----9--------|--7-------7--9---------|--9----------------|
---------------------|-------9---------------|-------------------|
---------------------|-----------------------|-------------------|
---------------------|-----------------------|-------------------|


  H        Q.     E     Q    Q    H           Q    Q    Q    Q     
---------------------|---------------------|----------------------|
-----------8------8--|--7------------------|-----------------7----|
--5------------------|-------9----9--------|--7---------9---------|
---------------------|---------------------|-------9--------------|
---------------------|---------------------|----------------------|
---------------------|---------------------|----------------------|


  Q.     E  H           H        Q.     E     Q    Q    H         
---------------------|---------------------|---------------------|
---------7-----------|-----------8------8--|--7------------------|
--9---------9--------|--5------------------|-------9----9--------|
---------------------|---------------------|---------------------|
---------------------|---------------------|---------------------|
---------------------|---------------------|---------------------|


  Q    E  E  Q    Q       H.           Q       H        Q.     E   
-----------------------|--------------------|---------------------|
------------------7----|--------------------|-----------8------8--|
--7-------7--9---------|--9------------7----|--5------------------|
-------9---------------|--------------------|---------------------|
-----------------------|--------------------|---------------------|
-----------------------|--------------------|---------------------|


  Q     E  E  H            Q     E   E   Q    E   E      H.            Q     
-----------------------|----------------10----9------|----------------------|
--7----10--7--8--------|--12--------12-----------12--|--10------------12----|
-----------------------|--------12-------------------|----------------------|
-----------------------|-----------------------------|----------------------|
-----------------------|-----------------------------|----------------------|
-----------------------|-----------------------------|----------------------|


  H        Q.     E      Q    H         Q        H        E   E   E   E   
---------------------|-----------------------|---------------------------|
-----------8------8--|--10-------------------|---------------------------|
--5------------------|--------9--------11----|--12--------L--12--11--12--|
---------------------|-----------------------|---------------------------|
---------------------|-----------------------|---------------------------|
---------------------|-----------------------|---------------------------|


   Q     H         Q       H.           Q       W                 
------------------------|--------------------|-------------------|
--12----10--------------|--------------------|-------------------|
------------------------|--9------------7----|--9----------------|
------------------12----|--------------------|-------------------|
------------------------|--------------------|-------------------|
------------------------|--------------------|-------------------|


  W                                                          
-------------------|-------------------|-------------------||
-------------------|-------------------|-------------------||
--L----------------|-------------------|-------------------||
-------------------|-------------------|-------------------||
-------------------|-------------------|-------------------||
-------------------|-------------------|-------------------||


                                   


                                                                       Ensiferum
Rhythm Guitar



     ^                   ^                   ^        ^         
     W                   W                   H        H         
E||--0----------------|--3----------------|--3--------7--------|
B||--0----------------|--0----------------|--0--------5--------|
G||--0----------------|--0----------------|--0--------2--------|
D||--2----------------|--0----------------|--0--------2--------|
A||-------------------|-------------------|--------------------|
E||-------------------|-------------------|--------------------|


  ^                   ^                   ^                   ^                 
  W                   W                   W                   W                 
--2----------------|--0----------------|-------------------|--0----------------|
--3----------------|--0----------------|--3----------------|--0----------------|
--2----------------|--0----------------|--2----------------|--0----------------|
--0----------------|--2----------------|--4----------------|--2----------------|
-------------------|-------------------|-------------------|-------------------|
-------------------|-------------------|-------------------|-------------------|


                      ^                   ^                 
  W                   W                   W                 
--L----------------|--0----------------|--3----------------|
--L----------------|--0----------------|--0----------------|
--L----------------|--0----------------|--0----------------|
--L----------------|--2----------------|--0----------------|
-------------------|-------------------|-------------------|
-------------------|-------------------|-------------------|


  ^        ^           ^                   ^                 
  H        H           W                   W                 
--3--------7--------|--2----------------|--0----------------|
--0--------5--------|--3----------------|--0----------------|
--0--------2--------|--2----------------|--0----------------|
--0--------2--------|--0----------------|--2----------------|
--------------------|-------------------|-------------------|
--------------------|-------------------|-------------------|


  ^                   ^                                       ^                 
  W                   W                   W                   W                 
-------------------|--0----------------|--L----------------|--0----------------|
--3----------------|--0----------------|--L----------------|--0----------------|
--2----------------|--0----------------|--L----------------|--0----------------|
--4----------------|--2----------------|--L----------------|--2----------------|
-------------------|-------------------|-------------------|-------------------|
-------------------|-------------------|-------------------|-------------------|


   ^                   ^        ^           ^                 
   W                   H        H           W                 
---8----------------|--0--------3--------|--2----------------|
---8----------------|--0--------0--------|--3----------------|
---9----------------|--0--------0--------|--2----------------|
--10----------------|--2--------0--------|--0----------------|
--------------------|--------------------|-------------------|
--------------------|--------------------|-------------------|


  ^                   ^        ^           ^                 
  W                   H        H           W                 
--0----------------|--------------------|--0----------------|
--1----------------|-----------3--------|--0----------------|
--2----------------|--4--------2--------|--0----------------|
--2----------------|--4--------4--------|--2----------------|
-------------------|--2-----------------|-------------------|
-------------------|--------------------|-------------------|


  ^                   ^                    ^                 
  W                   W                    W                 
--0----------------|--0----------------|---8----------------|
--0----------------|--0----------------|---8----------------|
--0----------------|--0----------------|---9----------------|
--2----------------|--2----------------|--10----------------|
-------------------|-------------------|--------------------|
-------------------|-------------------|--------------------|


  ^        ^           ^                   ^                 
  H        H           W                   W                 
--0--------3--------|-------------------|--0----------------|
--0--------0--------|-------------------|--1----------------|
--0--------0--------|--4----------------|--2----------------|
--2--------0--------|--4----------------|--2----------------|
--------------------|--2----------------|-------------------|
--------------------|-------------------|-------------------|


  ^                   ^            ^       ^                 
  W                   H.           Q       W                 
-------------------|--0------------0----|--0----------------|
-------------------|--0------------0----|--0----------------|
--4----------------|--0------------0----|--0----------------|
--4----------------|--2------------2----|--2----------------|
--2----------------|--------------------|-------------------|
-------------------|--------------------|-------------------|


  E  S S E  S S E  S S E  S S    E  S S E  S S E  S S E  S S  
--0--0-0-0--0-0-0--0-0-0--0-0-|--0--0-0-0--0-0-0--0-0-0--0-0-|
--0--0-0-0--0-0-0--0-0-0--0-0-|--0--0-0-0--0-0-0--0-0-0--0-0-|
--0--0-0-0--0-0-0--0-0-0--0-0-|--0--0-0-0--0-0-0--0-0-0--0-0-|
--2--2-2-2--2-2-2--2-2-2--2-2-|--2--2-2-2--2-2-2--2-2-2--2-2-|
------------------------------|------------------------------|
------------------------------|------------------------------|


  E  S S E  S S E  S S E  S S    E  S S E  S S E  S S E  S S  
--0--0-0-0--0-0-0--0-0-0--0-0-|--0--0-0-0--0-0-0--0-0-0--0-0-|
--0--0-0-0--0-0-0--0-0-0--0-0-|--0--0-0-0--0-0-0--0-0-0--0-0-|
--0--0-0-0--0-0-0--0-0-0--0-0-|--0--0-0-0--0-0-0--0-0-0--0-0-|
--2--2-2-2--2-2-2--2-2-2--2-2-|--2--2-2-2--2-2-2--2-2-2--2-2-|
------------------------------|------------------------------|
------------------------------|------------------------------|


  E  S S E  S S E  S S E  S S    E  S S E  S S E  S S E  S S  
--0--0-0-0--0-0-0--0-0-0--0-0-|--0--0-0-0--0-0-0--0-0-0--0-0-|
--0--0-0-0--0-0-0--0-0-0--0-0-|--0--0-0-0--0-0-0--0-0-0--0-0-|
--0--0-0-0--0-0-0--0-0-0--0-0-|--0--0-0-0--0-0-0--0-0-0--0-0-|
--2--2-2-2--2-2-2--2-2-2--2-2-|--2--2-2-2--2-2-2--2-2-2--2-2-|
------------------------------|------------------------------|
------------------------------|------------------------------|


  E  S S E  S S E  S S E  S S    E  S S E  S S E  S S E  S S  
--0--0-0-0--0-0-0--0-0-0--0-0-|--0--0-0-0--0-0-0--0-0-0--0-0-|
--0--0-0-0--0-0-0--0-0-0--0-0-|--0--0-0-0--0-0-0--0-0-0--0-0-|
--0--0-0-0--0-0-0--0-0-0--0-0-|--0--0-0-0--0-0-0--0-0-0--0-0-|
--2--2-2-2--2-2-2--2-2-2--2-2-|--2--2-2-2--2-2-2--2-2-2--2-2-|
------------------------------|------------------------------|
------------------------------|------------------------------|


   ^        ^           ^        ^           ^        ^         
   H        H           H        H           H        H         
---8--------0--------|--7--------0--------|--3--------2--------|
---8--------0--------|--7--------0--------|--0--------3--------|
---9--------0--------|--7--------0--------|--0--------2--------|
--10--------2--------|--9--------2--------|--0--------0--------|
---------------------|--------------------|--------------------|
---------------------|--------------------|--------------------|


  ^                    ^        ^           ^        ^         
  W                    H        H           H        H         
--0----------------|---8--------0--------|--7--------0--------|
--1----------------|---8--------0--------|--7--------0--------|
--2----------------|---9--------0--------|--7--------0--------|
--2----------------|--10--------2--------|--9--------2--------|
-------------------|---------------------|--------------------|
-------------------|---------------------|--------------------|


  ^        ^           ^                    ^        ^         
  H        H           W                    H        H         
--3--------0--------|--0----------------|---8--------0--------|
--0--------1--------|--1----------------|---8--------0--------|
--0--------2--------|--0----------------|---9--------0--------|
--0--------2--------|--2----------------|--10--------2--------|
--------------------|-------------------|---------------------|
--------------------|-------------------|---------------------|


  ^        ^           ^        ^           ^                 
  H        H           H        H           W                 
--7--------0--------|--3--------2--------|--0----------------|
--7--------0--------|--0--------3--------|--1----------------|
--7--------0--------|--0--------2--------|--2----------------|
--9--------2--------|--0--------0--------|--2----------------|
--------------------|--------------------|-------------------|
--------------------|--------------------|-------------------|


   ^        ^           ^        ^           ^        ^         
   H        H           H        H           H        H         
---8--------0--------|--7--------0--------|--3-----------------|
---8--------0--------|--7--------0--------|--0-----------------|
---9--------0--------|--7--------0--------|--0--------4--------|
--10--------2--------|--9--------2--------|--0--------4--------|
---------------------|--------------------|-----------2--------|
---------------------|--------------------|--------------------|


  ^                    ^        ^           ^        ^         
  W                    H        H           H        H         
--0----------------|---8--------0--------|--7--------0--------|
--1----------------|---8--------0--------|--7--------0--------|
--2----------------|---9--------0--------|--7--------0--------|
--2----------------|--10--------2--------|--9--------2--------|
-------------------|---------------------|--------------------|
-------------------|---------------------|--------------------|


  ^        ^           ^                    ^        ^         
  H        H           W                    H        H         
--2--------0--------|--3----------------|---8--------0--------|
--3--------1--------|--1----------------|---8--------0--------|
--2--------2--------|--2----------------|---9--------0--------|
--0--------2--------|--2----------------|--10--------2--------|
--------------------|-------------------|---------------------|
--------------------|-------------------|---------------------|


  ^        ^           ^        ^           ^                 
  H        H           H        H           W                 
--7--------0--------|--0--------2--------|--3----------------|
--7--------1--------|--0--------3--------|--0----------------|
--7--------2--------|--0--------2--------|--0----------------|
--9--------2--------|--2--------0--------|--0----------------|
--------------------|--------------------|-------------------|
--------------------|--------------------|-------------------|


   ^        ^           ^        ^           ^        ^         
   H        H           H        H           H        H         
---8--------0--------|--7--------0--------|--0--------2--------|
---8--------0--------|--7--------0--------|--0--------3--------|
---9--------0--------|--7--------0--------|--0--------2--------|
--10--------2--------|--9--------2--------|--2--------0--------|
---------------------|--------------------|--------------------|
---------------------|--------------------|--------------------|


  ^                    ^        ^           ^        ^         
  W                    H        H           H        H         
--0----------------|---8--------3--------|--2--------0--------|
--0----------------|---8--------0--------|--3--------1--------|
--0----------------|---9--------0--------|--2--------2--------|
--2----------------|--10--------0--------|--0--------2--------|
-------------------|---------------------|--------------------|
-------------------|---------------------|--------------------|


  ^         ^            ^                                                 
  H         H            W                                                 
--0---------8--------|--12----------------|-------|-------|-------|-------|
--1---------8--------|--12----------------|-------|-------|-------|-------|
--2---------9--------|--12----------------|-------|-------|-------|-------|
--2--------10--------|--14----------------|-------|-------|-------|-------|
---------------------|--------------------|-------|-------|-------|-------|
---------------------|--------------------|-------|-------|-------|-------|


-------|-------|-------|-------|-------|-------|-------|-------|-------|-------|
-------|-------|-------|-------|-------|-------|-------|-------|-------|-------|
-------|-------|-------|-------|-------|-------|-------|-------|-------|-------|
-------|-------|-------|-------|-------|-------|-------|-------|-------|-------|
-------|-------|-------|-------|-------|-------|-------|-------|-------|-------|
-------|-------|-------|-------|-------|-------|-------|-------|-------|-------|


                   ^        ^           ^        ^           ^        ^         
                   H        H           H        H           H        H         
-------|-------|---8--------0--------|--7--------0--------|--3--------2--------|
-------|-------|---8--------0--------|--7--------0--------|--0--------3--------|
-------|-------|---9--------0--------|--7--------0--------|--0--------2--------|
-------|-------|--10--------2--------|--9--------2--------|--0--------0--------|
-------|-------|---------------------|--------------------|--------------------|
-------|-------|---------------------|--------------------|--------------------|


  ^                    ^        ^           ^        ^         
  W                    H        H           H        H         
--0----------------|---8--------0--------|--7--------0--------|
--1----------------|---8--------0--------|--7--------0--------|
--2----------------|---9--------0--------|--7--------0--------|
--2----------------|--10--------2--------|--9--------2--------|
-------------------|---------------------|--------------------|
-------------------|---------------------|--------------------|


  ^        ^           ^                    ^        ^         
  H        H           W                    H        H         
--3--------0--------|--0----------------|---8--------0--------|
--0--------1--------|--1----------------|---8--------0--------|
--0--------2--------|--0----------------|---9--------0--------|
--0--------2--------|--2----------------|--10--------2--------|
--------------------|-------------------|---------------------|
--------------------|-------------------|---------------------|


  ^        ^           ^        ^           ^                 
  H        H           H        H           W                 
--7--------0--------|--3--------2--------|--0----------------|
--7--------0--------|--0--------3--------|--1----------------|
--7--------0--------|--0--------2--------|--2----------------|
--9--------2--------|--0--------0--------|--2----------------|
--------------------|--------------------|-------------------|
--------------------|--------------------|-------------------|


   ^        ^           ^        ^           ^        ^         
   H        H           H        H           H        H         
---8--------0--------|--7--------0--------|-----------2--------|
---8--------0--------|--7--------0--------|-----------3--------|
---9--------0--------|--7--------0--------|--4--------2--------|
--10--------2--------|--9--------2--------|--4--------0--------|
---------------------|--------------------|--2-----------------|
---------------------|--------------------|--------------------|


  ^                    ^        ^           ^                 
  W                    H        H           W                 
--0----------------|---8--------0--------|--0----------------|
--2----------------|---8--------0--------|--1----------------|
--2----------------|---9--------0--------|--2----------------|
--2----------------|--10--------2--------|--2----------------|
-------------------|---------------------|-------------------|
-------------------|---------------------|-------------------|


   ^                   ^    ^               ^                 
   W                   Q    H.              W                 
---8----------------|--3----5------------|--0----------------|
---8----------------|--0----5------------|--0----------------|
---9----------------|--0----5------------|--0----------------|
--10----------------|--0----7------------|--2----------------|
--------------------|--------------------|-------------------|
--------------------|--------------------|-------------------|


  ^                                                         
  W                   W                                     
--0----------------|--L----------------|-------------------|
--0----------------|--L----------------|-------------------|
--0----------------|--L----------------|-------------------|
--2----------------|--L----------------|-------------------|
--2----------------|--L----------------|-------------------|
--0----------------|--L----------------|-------------------|


-------------------||
-------------------||
-------------------||
-------------------||
-------------------||
-------------------||




Duration Legend
---------------
W - whole
H - half
Q - quarter
E - 8th
S - 16th
T - 32nd
X - 64th
. - note dotted
|-n-|  - n-tuplets


Tablature Legend
----------------
L - tied note
x - dead note
g - grace note
(n) - ghost note
> - accentuded note
NH - natural harmonic
AH - artificial harmonic
TH - tapped harmonic
SH - semi harmonic
PH - pitch harmonic
h - hammer on
p - pull off
b - bend
br - bendRelease
pb - preBend
pbr - preBendRelease
brb - bendReleaseBend
\n/ - tremolo bar dip
\n - tremolo bar dive
-/n - tremolo bar Release up
/n\ - tremolo bar inverted dip
/n - tremolo bar return
-\n - tremolo bar Release down
S - shift slide
s - legato slide
/ -  slide into from below or out of upwards
\ -  slide into from above or out of downwards
~ - vibrato
W - wide vibrato
tr - trill
TP - tremolo picking
T - tapping
S - slap
P - pop
< - fade in
^ - brush up
v - brush down
Добавлено: 15.03.2012
Другие материалы по этой песне:

Страница создана 01.03.2012
http://primanota.ru/ensiferum/ferrum-aeternum-chords.htm
Привет, Гость.
Предлагаем пройти революционный курс по гитаре.
Подарок от PrimaNota.Ru, забирай!