PrimaNota.ru - самый крупный в мире бесплатный архив песенных текстов, аккордов, табулатур и нот


Ensiferum - Dragonheads - текст песни, таба, видео

Регистрация Запомнить меня
Войти через:  Facebook Google Twitter Vk Yandex Mail.ru

Ensiferum - Dragonheads - текст песни, таба, видео

Печатать
Просмотров: 210
Ensiferum - Dragonheads

I tabbed this by ear and this is my first tab. I think it's quite good. I only tabbed 
intro cause the rest is too hard.

Tuning: EADGBe

Pt: A 
|-----------------------------------------------------------------------------|
|-----------------------------------------------------------------------------|
|-------------4----------------------------9--------------4--------4----------|
|---2---------4---------6---------7--------9-------4-2-4--4--------4----------|
|---4---------2---------7---------7--------7-------4-2-4--6--------6----------|
|---4--0-0-0------0--0--4--0-0-0--5--0--0----0-0-0-6-4-6-----0--0-------------|

      
|-----------------------------------------------------------------------------|
|-----------------------------------------------------------------------------|
|-------------4----------------------------9--------------4--------4----------|
|---2---------4---------6---------7--------9-------4-2-4--4--------4----------|
|---4---------2---------7---------7--------7-------4-2-4--6--------6----------|
|---4--0-0-0------0--0--4--0-0-0--5--0--0----0-0-0-6-4-6-----0--0-------------|

Pt: B
|---------------------------------------------------------------------------|
|----------------------------------7----------------------------------------|
|---6---------6--8---------8--9------9----8--6------------------------------|
|--------6-------------9---------------------------9---6--9---8------6------|
|-----------------------------------------------------------------9---------|
|---------------------------------------------------------------------------|
Pt: C
|---------------------------------------------------------------------------|
|---------------------------------------------------------------------------|
|---6---------6--8---------8--9---8--6--------------------------6-----------|
|--------6-------------9-----------------9--8------------6-8-9-----8--------|
|------------------------------------------------9---7-----------------6----|
|-------------------------------------------------------------------------9-|

!!!! Pt: B  (AGAIN) !!!!

Pt: D
|---------------------------------------------------------------------------|
|---------------------------------------------------------------------------|
|---6---------6--8------8--9----8---6-----------------8--6------------------|
|--------6-----------9------------------9---6-----9-------------------------|
|---------------------------------------------------------------------------|
|---------------------------------------------------------------------------|

Listen to the song to get the timings right.
Добавлено: 19.05.2012
Другие материалы по этой песне:

Страница создана 23.03.2012
http://primanota.ru/ensiferum/dragonheads-chords.htm
Привет, Гость.
Предлагаем пройти революционный курс по гитаре.
Подарок от PrimaNota.Ru, забирай!