PrimaNota.ru - самый крупный в мире бесплатный архив песенных текстов, аккордов, табулатур и нот


Enrique Iglesias - Dont You Forget About Me - аккорды и текст, таба, видео

Регистрация Запомнить меня
Войти через:  Facebook Google Twitter Vk Yandex Mail.ru

Enrique Iglesias - Dont You Forget About Me - аккорды и текст, таба, видео

Печатать
Просмотров: 976
Dont You Forget About Me
Enrique Iglesias
Enrique Iglesias- Don't you forget about me

Tuning- E A D G B E

Tabbet by: ..:pigiyo:.. pygi@net.hr

Bm -224432
E  -022100
A  -002220
D  -xx0232
F#m-244222        /
-----------------/

                         Bm
they say love is just a game
E                            A
they say time can heal the pain
A                                  Bm
sometimes you win, sometimes you lose
Bm                        E
and i guess i'm just a fool
                       A
i keep holding on to you


i told you once you were the one
you know that i'll die for you
Although it hurts to see you go
oh this time you should know
                          F#m  A
i won't try to stop you


D                           E
don't you forget about me baby
A                          F#m
don't you forget about me now
D                                   E        A
some day you'll turn around and ask me, why did i let you go


so you try to fake a smile
you don't wanna break my heart
i can see that you're afraid
but baby its to late
coz I'm already dying

dont you forget about me baby
dont you forget about me now
some day you'll turn around and ask me, why did i let you go


-----------------------------------------------------------------|
-----2-----------------------------------------------------------|
-2h4---4-4h2/4--------------6-9---4\2--4-4/6-6-------------------|
----------------------6h7-9--------------------------------------|
-----------------------------------------------------------------|
-----------------------------------------------------------------|

------------------------------------------------------------------|
----10---9-----7h5-5/7----7h9h7h5------------5---------7h5h7------|
-6/----6----6-------------------------1h2/6----4h2----------------|
---------------------------------------------------4--------------|
------------------------------------------------------------------|
------------------------------------------------------------------|..F#m D,ref


I'm not sure that everything is correct so if you find something...(correct)...;))
Добавлено: 13.05.2012
Другие материалы по этой песне:
  • Аккорды и текст

Страница создана 27.03.2012
http://primanota.ru/enrique-iglesias/dont-you-forget-about-me-chords.htm
Привет, Гость.
Предлагаем пройти революционный курс по гитаре.
Подарок от PrimaNota.Ru, забирай!