PrimaNota.ru - самый крупный в мире бесплатный архив песенных текстов, аккордов, табулатур и нот


Enrique Bunbury - Salom - бас-таба, видео

Регистрация Запомнить меня
Войти через:  Facebook Google Twitter Vk Yandex Mail.ru

Enrique Bunbury - Salom - бас-таба, видео

Печатать
Просмотров: 105
G|-----------------------------------------------------------|
D|-----------------------------------------------------------|
A|-----------------------------------------------------------|
E|-1-2222---1-2222---1-2222---1-2-3--------------------------|



G|-----------------------------------------------------------|
D|-----------------------------------------------------------|
A|-----------------3-3-33------------------------------------|
E|-------5-5-55----------------------------------------------|

G|-----------------------------------------------------------|
D|-----------------------------------------------------------|
A|-----------------------------------------------------------|
E|--1-1-2---1-1-2---1-1-2---1-1-2---1-1-2---1-1-2---1-1-2---1|


G|-----------------------------------------------------------|
D|-----------------------------------------------------------|
A|-----------------------------------------------------------|
E|-1-2222---1-2222---1-2222---1-2-3--------------------------|




G|-----------------------------------------------------------|
D|-----------------------------------------------------------|
A|----------------3-3-33-------------------------------------|
E|-----5-5-55------------------------------------------------|

G|-----------------------------------------------------------|
D|-----------------------------------------------------------|
A|-----------------------------------------------------------|
E|-1-2-2---1-2-2---1-2-2---1-2-2---1-2-2---1-2-2---1-2-2-----|





G|-----------------------------------------------------------|
D|-----------------------------------------------------------|
A|-----------------------------------------------------------|
E|--5-6-6--5-6-6--5-6-6--5-6-6--1-2-2--1-2-2--1-2-2--1-2-2---|

G|-----------------------------------------------------------|
D|-----------------------------------------------------------|
A|-----------------------------------------------------------|
E|--5-6-6--5-6-6--5-6-6--5-6-6--1-2-2--1-2-2--1-2-2—1--------|





G|-----------------------------------------------------------|
D|-----------------------------------------------------------|
A|-----------------------------------------------------------|
E|-1-2222---1-2222---1-2222---1-2-3--------------------------|




G|-----------------------------------------------------------|
D|-----------------------------------------------------------|
A|-----------------3-3-33------------------------------------|
E|-----5-5-55------------------------------------------------|


G|-----------------------------------------------------------|
D|-----------------------------------------------------------|
A|-----------------------------------------------------------|
E|--1-2-2---1-2-2---1-2-2---1-2-2---1-2-2---1-2-2---1-2-2---1|



G|-----------------------------------------------------------|
D|-----------------------------------------------------------|
A|-----------------------------------------------------------|
E|--5-6-6--5-6-6--5-6-6--5-6-6--1-2-2--1-2-2--1-2-2--1-2-2---|

G|-----------------------------------------------------------|
D|-----------------------------------------------------------|
A|-----------------------------------------------------------|
E|--5-6-6--5-6-6--5-6-6--5-6-6--1-2-2--1-2-2--1-2-2--1-2-2—1-|





G|-----------------------------------------------------------|
D|-----------------------------------------------------------|
A|-5-6-6--5-6-6--5-6-6--5-6-6--------------------------------|
E|-----------------------------1-2-2---1-2-2---1-2-2---1-2-2-|


G|-----------------------------------------------------------|
D|-----------------------------------------------------------|
A|-5-6-6--5-6-6--5-6-6--5-6-6--------------------------------|
E|-----------------------------5-6-6---5-6-6---5-6-6---5-6-6-|


G|-----------------------------------------------------------|
D|-----------------------------------------------------------|
A|-5-6-6---5-6-6---5-6-6---5-6-6-----------------------------|
E|-----------------------------------------------------------|


G|-----------------------------------------------------------|
D|-----------------------------------------------------------|
A|-----------------------------------------------------------|
E|--1-2222---1-2222---1-2222---1-2-3-------------------------|




G|-----------------------------------------------------------|
D|-----------------------------------------------------------|
A|-----------------------------------------------------------|
E|--5-6-6--5-6-6--5-6-6--5-6-6--1-2-2--1-2-2--1-2-2--1-2-2---|

G|-----------------------------------------------------------|
D|-----------------------------------------------------------|
A|-----------------------------------------------------------|
E|--5-6-6--5-6-6--5-6-6--5-6-6--1-2-2--1-2-2--1-2-2--1-2-2-1-|


G|-----------------------------------------------------------|
D|-----------------------------------------------------------|
A|--5-6-6--5-6-6--5-6-6--5-6-6-------------------------------|
E|------------------------------1-2-2--1-2-2--1-2-2--1-2-2---|

G|-----------------------------------------------------------|
D|-----------------------------------------------------------|
A|--5-6-6--5-6-6--5-6-6--5-6-6-------------------------------|
E|------------------------------5-6-6--5-6-6--5-6-6--5-6-6---|

G|-----------------------------------------------------------|
D|-----------------------------------------------------------|
A|--5-6-6--5-6-6--5-6-6--5-6-6-------------------------------|
E|-----------------------------------------------------------|
Добавлено: 27.04.2012
Другие материалы по этой песне:
  • Аккорды и текст

Страница создана 27.04.2012
http://primanota.ru/enrique-bunbury/salom-chords.htm
Привет, Гость.
Предлагаем пройти революционный курс по гитаре.
Подарок от PrimaNota.Ru, забирай!