PrimaNota.ru - самый крупный в мире бесплатный архив песенных текстов, аккордов, табулатур и нот


Ennui Breathes Malice - Somebody Call Fred Hollows - This Bitch Is Dead - таба, видео

Регистрация Запомнить меня
Войти через:  Facebook Google Twitter Vk Yandex Mail.ru

Ennui Breathes Malice - Somebody Call Fred Hollows - This Bitch Is Dead - таба, видео

Печатать
Просмотров: 88
Ennui Breathes Malice
     ennuibreathesmalice.bigcartel.com/
     www.facebook.com/EnnuiBreathesMailce
Obsessive Repulsive
Somebody Call Fred Hollows-This Bitch Is Dead
7 strings Drop A
I am currently working on the chorus riff, if anyone has insight or suggestions plz rate 
and comment
~ = let ring
P = pinch harmonic
T = tremolo
/\ = slide
. = palm mute

Guitar 1:
0:00-0:29
E|------1--------1---------------1--------1-------1~~~~~1~~~~~1---1-----1------|
B|----2---2--------2-----------2---2--------2-----2~~~~~2~~~~~~2—-2--------2---|
G|--3-------3--------3-------3-------3--------3—--3~~~~~3~~~~~~~3-3----------3-|
D|4-----------4~-------4~--4-----------4--------4-3~~~~~3~~~~~~~~-3------------|
A|-----------------------------------------------------------------------------|
E|-----------------------------------------------------------------------------|
A|-----------------------------------------------------------------------------|
 **there are two pick slides on E string while guitar 2 is ringing but I can't quite get 
the timing**
Guitar 2:

E|-------------------------------------------------------------------------------|
B|-------------------------------------------------------------------------------|
G|-------------------------------------------------------------------------------|
D|-----------------------------------------------1~~~~~~~~~~~1~~~~~~~~~~~~~~~----|
A|-----------------------------------------------2~~~~~~~~~~~2~~~~~~~~~~~~~~~----|
E|-----------------------------------------------3~~~~~~~~~~~3~~~~~~~~~~~~~~~----|
A|-----------------------------------------------4~~~~~~~~~~~4~~~~~~~~~~~~~~12t/~|
                                                                             .
Slide from 12 to open while palm muting and tremolo picking, it's there if you listen

Guitar 1:  0:30-1:00
 >                        x3               >               x2             x4
E|------------------------||---------------|---------------||-------------||------|
B|------------------------||---------------|---------------||-------------||-2----|
G|------------------------||---------------|---------------||-------------||--2---|
D|------------------------||---------------|---------------||-------------||---2--|
A|------------------------||---------------|---------------||-------------||----2-|
E|0-000—-1—-0—00-0—0-000—1||0-0-000-0-1-3-4|000-000-4-0-0-0||0-000-0-00---||0----0|
A|0-000—-1-—0—00-0—0-000—1||0-0—000-0-1-3-4|000-000-4-0-0-0||0-000-0-00-2n||0----0|
  . ...     . .. . . ...    . . ... .       ... ...   . . .  . ... . ..    .    .
The next to last section you play the 2 the first and third time, the 2nd and 4th have 
more open notes just follow the song for the rhythm
The 2's are natural harmonics


Guitar 2:
                          X3              >               X2           X2
E|------------------------||--------------|---------------||-----------||------|
B|------------------------||--------------|---------------||-----------||-2----|
G|------------------------||--------------|---------------||-----------||--2---|
D|1-111-----1-11-1-1-111--||1-1-111-1-----|111-111---1-1-1||1-111-1-11-||---2--|
A|2-222-----2-22-2-2-222--||2-2-222-2-----|222-222---2-2-2||2-222-2-22-||----2-|
E|3-333-----3-33-3-3-333--||3-3-333-3-----|333-333---3-3-3||3-333-3-33-||0----0|
A|4-444-----4-44-4-4-444--||4-4-444-4-----|444-444---4-4-4||4-444-4-44-||0----0|
  . ...     . .. . . ...    . . ... .      ... ...   . . .  . ... . ..   .    .


Guitar 1&2:

E|--------------------------------------------------------|
B|--------------------------------------------------------|
G|--------------------------------------------------------|
D|--------------------------------------------------------|
A|-------------------------2p----------------------2p---0~|
E|00-0-00-00-0-0-000-0-0-0----00-0-00—0-0-0-00-0-0----0-0~|
A|00-0-00—00-0-0-000-0-0-0----00-0-00—0-0-0-00-0-0----0-0~|
Добавлено: 10.11.2013
Вам также может быть интересно:
Другие материалы по этой песне:
  • Аккорды и текст

Страница создана 05.10.2013
http://primanota.ru/ennui-breathes-malice/somebody-call-fred-hollows-this-bitch-is-dead-chords.htm
Привет, Гость.
Предлагаем пройти революционный курс по гитаре.
Подарок от PrimaNota.Ru, забирай!