PrimaNota.ru - самый крупный в мире бесплатный архив песенных текстов, аккордов, табулатур и нот


Ennio Morricone - The Crisis - таба, видео

Регистрация Запомнить меня
Войти через:  Facebook Google Twitter Vk Yandex Mail.ru

Ennio Morricone - The Crisis - таба, видео

Печатать
Просмотров: 693
Уроки эстрадного вокала в Санкт-Петербурге
Here's my arrangement of "The Crisis" by Ennio Morricone.
It's a wonderful piece, it's a bit hard to play smoothly on guitar because of the 
dissonance that makes the song very, very deep.

Have a nice play,
Max Gnocchi
http://www.youtube.com/user/wastzzz


     Q    Q    Q    Q       Q    Q    Q    Q       Q    Q    Q    Q
E||-------0----2----5----|-------0----2----5----|-------0----2----5----|
B||--3---------6---------|--3---------6---------|--3---------6---------|
G||----------------------|----------------------|----------------------|
D||--0-------------------|----------------------|----------------------|
A||----------------------|--4-------------------|--2-------------------|
E||----------------------|----------------------|----------------------|


  Q    Q    Q    Q       Q    Q    Q    Q       Q    Q    Q    Q
-------0----2----5----|-------0----2----5----|-------0----2----7----|
--3---------6---------|--3---------6---------|--3---------6---------|
----------------------|----------------------|----------------------|
----------------------|----------------------|----------------------|
--1-------------------|--0-------------------|----------------------|
----------------------|----------------------|--4-------------------|


  Q    Q    Q    Q       Q    Q    Q    Q       Q    Q    Q    Q
-------0----2----5----|-------0----2----5----|-------0----2----5----|
--3---------6---------|--3---------6---------|--3---------6---------|
----------------------|----------------------|------------0---------|
----------------------|----------------------|----------------------|
----------------------|----------------------|----------------------|
--3-------------------|--2-------------------|--1---------0---------|


  Q    Q    Q    Q       E  E  E  E  E  E  E  E     E  E  E  E  E  E  E  E
-------0----2----5----|--------0-----2-----5-----|--------0-----2-----5-----|
--3---------6---------|--3-----------6-----------|--3-----------6-----------|
----------------------|-----2-----2-----2-----2--|-----2-----2-----2-----2--|
----------------------|--0-----------------------|--------------------------|
--0-------------------|--------------------------|--4-----------------------|
----------------------|--------------------------|--------------------------|


  E  E  E  E  E  E  E  E     E  E  E  E  E  E  E  E
--------0-----2-----5-----|--------0-----2-----5-----|
--3-----------6-----------|--3-----------6-----------|
-----2-----2-----2-----2--|-----0-----0-----0-----0--|
--------------------------|--------------------------|
--2-----------------------|--1-----------------------|
--------------------------|--------------------------|


  E  E  E  E  E  E  E  E     E  E  E  E  E  E  E  E
--------0-----2-----5-----|--------0-----2-----7-----|
--3-----------6-----------|--3-----------6-----------|
-----2-----2-----2-----2--|-----2-----2-----2-----2--|
--------------------------|--------------------------|
--0-----------------------|--------------------------|
--------------------------|--4-----------------------|


  E  E  E  E  E  E  E  E     E  E  E  E  E  E  E  E
--------0-----2-----5-----|--------0-----2-----5-----|
--3-----------6-----------|--3-----------6-----------|
-----2-----2-----2-----2--|-----2-----2-----2-----2--|
--------------------------|--------------------------|
--------------------------|--------------------------|
--3-----------------------|--2-----------------------|


  E  E  E  E  E  E  E  E     Q    Q    Q    Q
--------0-----2-----5-----|-------0----2----5----||
--3-----------6-----------|--3---------6---------||
-----2-----2--0--0-----0--|----------------------||
--------------------------|----------------------||
--------------------------|--0-------------------||
--1-----------0-----------|----------------------||



Duration Legend
---------------
Q - quarter
E - 8th
Добавлено: 22.06.2012
Другие материалы по этой песне:

Страница создана 22.06.2012
http://primanota.ru/ennio-morricone/the-crisis-chords.htm
Привет, Гость.
Предлагаем пройти революционный курс по гитаре.
Подарок от PrimaNota.Ru, забирай!