PrimaNota.ru - самый крупный в мире бесплатный архив песенных текстов, аккордов, табулатур и нот


Ennio Morricone - Inseguimento - таба, видео

Регистрация Запомнить меня
Войти через:  Facebook Google Twitter Vk Yandex Mail.ru

Ennio Morricone - Inseguimento - таба, видео

Печатать
Просмотров: 159
Inseguimento from The Good The Bad & The Ugly

Ennio Morricone

Tabbed by ScreamOfSilence

Tuning: (D A D G B E)


Normal tuning is used, only the first string need to move E to the second fret.


E|---------------------|
B|---------------------|
G|---------------------|
D|---------------------|
A|---------------------|
D|-------E-2fret-------|






All sounds adapted to guitar

|-------------------------------------------|
|-------------------------------------------|
|--7-7--------10--12------------------------|
|-7-7-7~~-------------12-----12--12---------|
|-------------------------------------------|
|-------------------------------------------|

|-------------------------------------------|
|-------------------13----------------------|
|--7-7-------10--12-------------------------|
|-7-7-7~~---------------------10--10--------|
|-------------------------------------------|
|-------------------------------------------|



|-------------------------------------------|
|-------------------------------------------|
|--7-7~~---~10--9--7----------9--9----------|
|-7-7----------------10---------------------|
|-------------------------------------------|
|-------------------------------------------|

|-------------------------------------------|
|-------------------------------------------|
|--7-7------12------------------------------|
|-7-7-7~~-------12-12------12-12-12---12--12|
|-------------------------------------------|
|-------------------------------------------|


|-------------------------------------------|
|-------------------------------------------|
|--7-7-----10-12----------------------------|
|-7-7-7~~--------12-------------------------|
|-------------------------------------------|
|-------------------------------------------|

|-------------------------------------------|
|------------------13-----------------------|
|--7-7-----10--12---------------------------|
|-7-7-7~~-----------------------------------|
|-------------------------------------------|
|-------------------------------------------|

|-------------------------------------------|
|-------------------------------------------|
|--7-7~~---~10--9--7------------------------|
|-7-7----------------10---------------------|
|-------------------------------------------|
|-------------------------------------------|
|-------------------------------------------|
|-------------------------------------------|
|--7-7------12------------------------------|
|-7-7-7~~-------12-12-----------------------|
|-------------------------------------------|
|-------------------------------------------|






Guitar part
|-------------------------------------------|
|---------1---------------------------------|
|-----2-------------------------------------|
|---0---3-----------------------------------|
|-0-----------------------------------------|
|-------------------------------------------|

|-------------------------------------------|
|---------1---------------------------------|
|-----2-------------------------------------|
|---0---3-----------------------------------|
|-0-----------------------------------------|
|-------------------------------------------|

|-------------0---3------5------------------|
|---------1-----1---------------------------|
|-----2-----2-------------------------------|
|---0---3-----------------------------------|
|-0-----------------------------------------|
|-------------------------------------------|


|-1-0---------------------------------------|
|-----3-------------------------------------|
|-------------------------------------------|
|-------------------------------------------|
|-------------------------------------------|
|-------------------------------------------|
| All sounds adapted to guitar
|-------------------------------------------|
|-------------------------------------------|
|------7-7-----10-12------------------------|
|-----7-7-7~~--------12---------------------|
|-------------------------------------------|
|-------------------------------------------|


|-------------------------------------------|
|------------------13-----------------------|
|--7-7-----10--12---------------------------|
|-7-7-7~~-----------------------------------|
|-------------------------------------------|
|-------------------------------------------|




|-------------------------------------------|
|-------------------------------------------|
|--7-7~~---~10--9--7------------------------|
|-7-7----------------10---------------------|
|-------------------------------------------|
|-------------------------------------------|

|-------------------------------------------|
|-------------------------------------------|
|--7-7------12------------------------------|
|-7-7-7~~-------12-12-----------------------|
|-------------------------------------------|
|-------------------------------------------|




Guitar part
|-------------------------------------------|
|---------1---------------------------------|
|-----2-------------------------------------|
|---0---3-----------------------------------|
|-0-----------------------------------------|
|-------------------------------------------|

|-------------------------------------------|
|---------1---------------------------------|
|-----2-------------------------------------|
|---0---3-----------------------------------|
|-0-----------------------------------------|
|-------------------------------------------|

|-------------0---3------5------------------|
|---------1-----1---------------------------|
|-----2-----2-------------------------------|
|---0---3-----------------------------------|
|-0-----------------------------------------|
|-------------------------------------------|


|-1-0---3-----------------------------------|
|-----3---3-3-------------------------------|
|-------------------------------------------|
|-------------------------------------------|
|-------------------------------------------|
|-------------------------------------------|

All sounds adapted to guitar

|-------------------------------------------|
|-------------------------------------------|
|-----2-----2-----2-----2-----2-------2-----|
|-2-3---2-3---2-3---2-3---2-3---2-3-5-------|
|-------------------------------------------|
|-------------------------------------------|

|-------------------------------------------|
|-------------------------------------------|
|------7-7-----10-12------------------------|
|-----7-7-7~~--------12---------------------|
|-------------------------------------------|
|-------------------------------------------|





|-------------------------------------------|
|-------------------------------------------|
|-10----9--------8---------7----------------|
|-------------------------------------------|
|-------------------------------------------|
|-------2--------1---------0----------------|


|-------------------------------------------|
|-------------------------------------------|
|-----2-----2-------------------------------|
|-2-3---2-3----2-3-5-6-7--------------------|
|-------------------------------------------|
|-------------------------------------------|



|-------------------------------------------|
|-------------------13----------------------|
|--7-7~~-----10--12-------------------------|
|-7-7---------------------------------------|
|-------------------------------------------|
|-------------------------------------------|


|-------------------------------------------|
|-------------------------------------------|
|-10----9--------8---------7----------------|
|-------------------------------------------|
|-------------------------------------------|
|--3----2--------1---------0----------------|
Добавлено: 01.05.2015
Другие материалы по этой песне:
  • Аккорды и текст

Страница создана 01.05.2015
http://primanota.ru/ennio-morricone/inseguimento-chords.htm
Привет, Гость.
Предлагаем пройти революционный курс по гитаре.
Подарок от PrimaNota.Ru, забирай!