PrimaNota.ru - самый крупный в мире бесплатный архив песенных текстов, аккордов, табулатур и нот


Ennio Morricone - Il Triello - таба, видео

Регистрация Запомнить меня
Войти через:  Facebook Google Twitter Vk Yandex Mail.ru

Ennio Morricone - Il Triello - таба, видео

Печатать
Просмотров: 265
Il Triello (The Trio) from The Good The Bad & The Ugly
Tabbed by ScreamOfSilence


e|---------------------|
B|---------------------|play it 12 times
G|---------------------|
D|--------2-3-0--------|
A|----0----------------|
E|---------------------|

e|---------------|
B|---------------|then play this in the final
G|---------------|
D|--------0~-----|
A|----0----------|
E|---------------|

e|--------------------|play it 12 times
B|--------------------|
G|--------------------|
D|--------2-3-0-------|
A|----0---------------|
E|--------------------|

e|---------------|
B|---------------|then play this in the final
G|---------------|
D|--------0~-----|
A|----0----------|
E|---------------|

e|---------------|play it 12 times
B|---------------|
G|---0-2---------|
D|---------3-----|
A|-3-------------|
E|---------------|

e|---------------|
B|---------------|then play this in the final
G|---------------|
D|--------0~-----|
A|----3----------|
E|---------------|

e|----------------|
B|----------------|play it 12 times
G|----------------|
D|---0-2----------|
A|---------3------|
E|-3--------------|

e|----------------------------|then play this in the final
B|----------------------------|
G|----------------------------|
D|----------------------------|
A|-----0------0-0-0---0--0~---|
E|--3-------------------------|


e|--------------------|
B|--------------------|play it 11 times
G|-----2-4-0----------|
D|--0-----------------|
A|--------------------|
E|--------------------|

e|---------------------|then play this in the final
B|---------------------|
G|---------------------|
D|-0-------0~----------|
A|----5----------------|
E|---------------------|

e|---------------------|
B|----------3----------|play it 12 times
G|------5-------3------|
D|-3-------------------|
A|---------------------|
E|---------------------|


e|----------------------------------------|
B|-----------------------------2----------|then play this in the final
G|-----------------------------2----------|
D|-3---------------------2-----2----------|
A|--------0~--------0----------0----------|
E|----------------------------------------|






Trumpet Adapted to guitar and chords.

   Rm                  A
e|---------------------17~-------------------------------------------------|
B|-15h17-15~--17-18-20-----17p15-17~---------------------------------------|
G|-------------------------------------------------------------------------|
D|-------------------------------------------------------------------------|
A|-------------------------------------------------------------------------|
E|-------------------------------------------------------------------------|


   Rm                  C
e|--------------17-20-20~---15p13-15---------------------------------------|
B|-15h17-15~--18-----------------------------------------------------------|
G|-------------------------------------------------------------------------|
D|-------------------------------------------------------------------------|
A|-------------------------------------------------------------------------|
E|-------------------------------------------------------------------------|


  Rm                        E          A            R          G
e|---------------------------------------------------------------15-17-15~-|
B|-15h17-15~--15\10-15-----17h18-17~------17\10-17--19-20-19~--15----------|
G|-------------------------------------------------------------------------|
D|-------------------------------------------------------------------------|
A|-------------------------------------------------------------------------|
E|-------------------------------------------------------------------------|


   F                          C
e|-13-15-17~--13-13-15-17-----15p13-15~------------------------------------|
B|-------------------------------------------------------------------------|
G|-------------------------------------------------------------------------|
D|-------------------------------------------------------------------------|
A|-------------------------------------------------------------------------|
E|-------------------------------------------------------------------------|




   Rm     G      F      C      A         E      R
e|-5------3------1------X------5---------0------2---|
B|-6------3------1------5------5---------0------3---|
G|-7------4------2------5------6---------1------2---|
D|-7------5------3------5------7---------2------0---|
A|-5------5------3------3------7---------2----------|
E|-X------3------1------X------5---------0----------|

Enjoy!!!!
Добавлено: 01.04.2012
Другие материалы по этой песне:
  • Аккорды и текст

Страница создана 01.04.2012
http://primanota.ru/ennio-morricone/il-triello-chords.htm
Привет, Гость.
Предлагаем пройти революционный курс по гитаре.
Подарок от PrimaNota.Ru, забирай!