PrimaNota.ru - самый крупный в мире бесплатный архив песенных текстов, аккордов, табулатур и нот


Ennio Morricone - Il Forte - таба, видео

Регистрация Запомнить меня
Войти через:  Facebook Google Twitter Vk Yandex Mail.ru

Ennio Morricone - Il Forte - таба, видео

Печатать
Просмотров: 136
Il Forte from The Good The Bad & The Ugly

Ennio Morricone

Tabbed by ScreamOfSilence

Tuning: (E A D G B E)



Harmonica adapted to guitar

|-------------------------------------------|
|---------------11--13---15-----------------|
|-------10-12-------------------------------|
|-12-13-------------------------------------|
|-------------------------------------------|
|-------------------------------------------|



Trumpet adapted to guitar

|-------------------------------------------|
|-----11----------------------11------------|
|-10------12---12----12--10-------12--------|
|-------------------------------------------|
|-------------------------------------------|
|-------------------------------------------|


|-------------------------------------------|
|-----11-------------15----15--18--15-13----|
|-10------12---10-------15------------------|
|-----------------12------------------------|
|-------------------------------------------|
|-------------------------------------------|

|-------------------------------------------|
|-13-15-------------------------------------|
|-------15-12-15-12-------------------------|
|-------------------15-12-15----------------|
|----------------------------15---15--------|
|-------------------------------------15~~--|

|-------------------------------------------|
|----11------------------11-----------------|
|-10-----12---12---12-10----12--------------|
|-------------------------------------------|
|-------------------------------------------|
|-------------------------------------------|

|-------------------------------------------|
|-------11-----------15----15--18--15-13----|
|----10---12---10-------15------------------|
|-10--------------12------------------------|
|-------------------------------------------|
|-------------------------------------------|

|-------------------------------------------|
|-13-15-------------------------------------|
|-------15-12-15-12-------------------------|
|-------------------15-12-15----------------|
|----------------------------15---15--13-13-|
|-------------------------------------------|


|-------------------------------------------|
|-------------------------------------------|
|-------------------------------------------|
|-------------------------------------------|
|-15---13--13-------------------------------|
|-------------------------------------------|

|-------------------------------------------|
|-------------------------------------------|
|-------------------------------------------|
|-------------------------------------------|
|-13--13---13-------------------------------|
|-------------------------------------------|

|-------------------------------------------|
|-------------------------------------------|
|-------------------------------------------|
|-------------------------------------------|
|-13---13---13------------------------------|
|-------------------------------------------|

|-------------------------------------------|
|-------------------------------------------|
|-------------------------------------------|
|-------------------------------------------|
|-15---13--13---------13---13---------------|
|-------------------------------------------|

|-------------------------------------------|
|-------------------------------------------|
|-------------------------------------------|
|-------------------------------------------|
|-15---13--13-------------------------------|
|-------------------------------------------|

Добавлено: 01.05.2015
Другие материалы по этой песне:
  • Аккорды и текст

Страница создана 01.05.2015
http://primanota.ru/ennio-morricone/il-forte-chords.htm
Привет, Гость.
Предлагаем пройти революционный курс по гитаре.
Подарок от PrimaNota.Ru, забирай!