PrimaNota.ru - самый крупный в мире бесплатный архив песенных текстов, аккордов, табулатур и нот


Enjoy Destroy - Lbj - таба, бас-таба, видео

Регистрация Запомнить меня
Войти через:  Facebook Google Twitter Vk Yandex Mail.ru

Enjoy Destroy - Lbj - таба, бас-таба, видео

Печатать
Просмотров: 137
                                      LBJ                                       


                                                                   Enjoy Destroy
Lead guitar



      E  E  E  Q    E   E  E     E  E  E  Q    E  E  E   
D#||--------------------------|-------------------------|
A#||--------7-----------7-----|--------7----------7--9--|
F#||-----9--L--9----9---L--9--|--L--9--L--9----9--L-----|
C#||--------------------------|-------------------------|
G#||--------------------------|-------------------------|
D#||--------------------------|-------------------------|


  E  E  E  Q    E   E  E     E  E  E  Q    E  E  E     E  E  E  Q    E   E  E   
--------------------------|-------------------------|--------------------------|
--L-----7-----------7-----|--------7----------7--9--|--L-----7-----------7-----|
--L--9--L--9----9---L--9--|--L--9--L--9----9--------|-----9--L--9----9---L--9--|
--------------------------|-------------------------|--------------------------|
--------------------------|-------------------------|--------------------------|
--------------------------|-------------------------|--------------------------|


  E  E  E  Q    E   S S  S S    W                   H.           S  S S  S  
-----------------------------|-------------------|-------------------------|
--------7-------------9-12-L-|--L----------------|------------------L-9-12-|
--L--9--L--9----9--11--------|--9----------------|--L------------L-11------|
-----------------------------|-------------------|-------------------------|
-----------------------------|-------------------|-------------------------|
-----------------------------|-------------------|-------------------------|


  W                   W                   W                   W                 
-------------------|-------------------|-------------------|-------------------|
--L----------------|--L----------------|-------------------|-------------------|
-------------------|-------------------|--2----------------|--4----------------|
-------------------|-------------------|--2----------------|--4----------------|
-------------------|-------------------|--0----------------|--2----------------|
-------------------|-------------------|-------------------|-------------------|


  E  E  E  E  E  E  E  E     E  E  E  E  E  E  E  E   
--------------------------|--------------------------|
--5-----5-----9-----9-----|--7-----7-----7-----7-----|
-----6-----6-----9-----9--|-----9-----9-----9-----9--|
--------------------------|--------------------------|
--------------------------|--------------------------|
--------------------------|--------------------------|


  E  E  E  E  E  E  E  E     E  E  E  E  E  E  E  E   
--------------------------|--------------------------|
--5-----5-----9-----9-----|--7-----7-----7-----7-----|
-----6-----6-----9-----9--|-----9-----9-----9-----9--|
--------------------------|--------------------------|
--------------------------|--------------------------|
--------------------------|--------------------------|


  S S S S S S S S S S S S Q       W                   E  E  E  Q    E   E  E   
-------------------------------|-------------------|--------------------------|
-------------------------------|-------------------|--L-----7-----------7-----|
------------------------x-4----|--L----------------|-----9--L--9----9---L--9--|
------------x-2-2-2-2---x-4----|--L----------------|--------------------------|
--2-2-2-2---x-0-0-0-0---x-2----|--L----------------|--------------------------|
--0-0-0-0---x------------------|-------------------|--------------------------|


  E  E  E  Q    E  E  E     E  E  E  Q    E   E  E   
-------------------------|--------------------------|
--------7----------7--9--|--L-----7-----------7-----|
--L--9--L--9----9--------|-----9--L--9----9---L--9--|
-------------------------|--------------------------|
-------------------------|--------------------------|
-------------------------|--------------------------|


  E  E  E  Q    E   S S  S S    W                   H.           S  S S  S  
-----------------------------|-------------------|-------------------------|
--------7-------------9-12-L-|--L----------------|------------------L-9-12-|
--L--9--L--9----9--11--------|--9----------------|--L------------L-11------|
-----------------------------|-------------------|-------------------------|
-----------------------------|-------------------|-------------------------|
-----------------------------|-------------------|-------------------------|


  W                   W                   W                   W                 
-------------------|-------------------|-------------------|-------------------|
--L----------------|--L----------------|-------------------|-------------------|
-------------------|-------------------|--2----------------|--4----------------|
-------------------|-------------------|--2----------------|--4----------------|
-------------------|-------------------|--0----------------|--2----------------|
-------------------|-------------------|-------------------|-------------------|


  E  E  E  E  E  E  E  E     E  E  E  E  E  E  E  E   
--------------------------|--------------------------|
--5-----5-----9-----9-----|--7-----7-----7-----7-----|
-----6-----6-----9-----9--|-----9-----9-----9-----9--|
--------------------------|--------------------------|
--------------------------|--------------------------|
--------------------------|--------------------------|


  E  E  E  E  E  E  E  E     E  E  E  E  E  E  S   S  S S  
--------------------------|-------------------------------|
--5-----5-----9-----9-----|--7-----7-----7----------------|
-----6-----6-----9-----9--|-----9-----9-----9--9h-11p-9-L-|
--------------------------|-------------------------------|
--------------------------|-------------------------------|
--------------------------|-------------------------------|


  S S S S S S S S S S S S S S S S    S S S S S S S S S S S S S S S S  
----------------------------------|----------------------------------|
----------------------------------|----------------------------------|
----------------------------------|----------------------------------|
--2-2-2-2-2-2-2-2-----------------|--4-4-4-4-4-4-4-4-4-4-4-4-4-4-4-4-|
--0-0-0-0-0-0-0-0-2-2-2-2-2-2-2-2-|--2-2-2-2-2-2-2-2-2-2-2-2-2-2-2-2-|
------------------0-0-0-0-0-0-0-0-|----------------------------------|


  S S S S S S S S S S S S S S S S    S S S S S S S S S S S S S S S S  
----------------------------------|----------------------------------|
----------------------------------|----------------------------------|
----------------------------------|----------------------------------|
--2-2-2-2-2-2-2-2-----------------|--4-4-4-4-4-4-4-4-4-4-4-4-4-4-4-4-|
--0-0-0-0-0-0-0-0-2-2-2-2-2-2-2-2-|--2-2-2-2-2-2-2-2-2-2-2-2-2-2-2-2-|
------------------0-0-0-0-0-0-0-0-|----------------------------------|


  S Q     S.S. T E  E.  S. S    S Q    S. S.  Q    Q       
-----------------------------|----------------------------|
--8-L----10-8--7-L--L------7-|--9-L----7--9--10----8br----|
------------------------9----|----------------------------|
-----------------------------|----------------------------|
-----------------------------|----------------------------|
-----------------------------|----------------------------|


  S Q     S.S. Q    E  E     S   S  H.            E   
--------------------------|--------------------------|
--8-L----10-8--7-------7--|--9h-12p-9~------------L--|
--------------------9-----|--------------------------|
--------------------------|--------------------------|
--------------------------|--------------------------|
--------------------------|--------------------------|


  S S S S S S S S S S S S S S S S    S S S S S S S S S S S S S S S S  
----------------------------------|----------------------------------|
----------------------------------|----------------------------------|
--4---4---4---4-------------------|--6---6---6---6---2---2---2---2---|
--4---4---4---4---2---2---2---2---|--6---6---6---6---2---2---2---2---|
--2---2---2---2---2---2---2---2---|--4---4---4---4---0---0---0---0---|
------------------0---0---0---0---|----------------------------------|


  S S S S S S S S S S S S S S S S    W                   W                 
----------------------------------|-------------------|-------------------|
----------------------------------|-------------------|-------------------|
--4---4---4---4-------------------|--4----------------|--L----------------|
--4---4---4---4---2---2---2---2---|--4----------------|--L----------------|
--2---2---2---2---2---2---2---2---|--2----------------|--L----------------|
------------------0---0---0---0---|-------------------|-------------------|


  E  E  E  E  E  E  E  E     E  E  E  E  E  E  E  E   
--------------------------|--------------------------|
--5-----5-----9-----9-----|--7-----7-----7-----7-----|
-----6-----6-----9-----9--|-----9-----9-----9-----9--|
--------------------------|--------------------------|
--------------------------|--------------------------|
--------------------------|--------------------------|


  E  E  E  E  E  E  E  E     E  E  E  E  E  E  S   S  S S  
--------------------------|-------------------------------|
--5-----5-----9-----9-----|--7-----7-----7----------------|
-----6-----6-----9-----9--|-----9-----9-----9--9h-11p-9-L-|
--------------------------|-------------------------------|
--------------------------|-------------------------------|
--------------------------|-------------------------------|


  S S S S S S S S S S S S S S S S    S S S S S S S S S S S S S S S S  
----------------------------------|----------------------------------|
----------------------------------|----------------------------------|
----------------------------------|----------------------------------|
--2-2-2-2-2-2-2-2-----------------|--4-4-4-4-4-4-4-4-4-4-4-4-4-4-4-4-|
--0-0-0-0-0-0-0-0-2-2-2-2-2-2-2-2-|--2-2-2-2-2-2-2-2-2-2-2-2-2-2-2-2-|
------------------0-0-0-0-0-0-0-0-|----------------------------------|


  S S S S S S S S S S S S S S S S    S S S S S S S S S S S S S S S S  
----------------------------------|----------------------------------|
----------------------------------|----------------------------------|
----------------------------------|----------------------------------|
--2-2-2-2-2-2-2-2-----------------|--4-4-4-4-4-4-4-4-4-4-4-4-4-4-4-4-|
--0-0-0-0-0-0-0-0-2-2-2-2-2-2-2-2-|--2-2-2-2-2-2-2-2-2-2-2-2-2-2-2-2-|
------------------0-0-0-0-0-0-0-0-|----------------------------------|


  W                   W                  
-------------------|-------------------||
-------------------|-------------------||
-------------------|-------------------||
--2----------------|--L----------------||
--2----------------|--L----------------||
--0----------------|--L----------------||




                                      LBJ                                       


                                                                   Enjoy Destroy
Strum



              H        S S S S S S S S    W                 
D#||-------|---------------------------|-------------------|
A#||-------|---------------------------|-------------------|
F#||-------|---------------------------|-------------------|
C#||-------|---------------------------|--2----------------|
G#||-------|---------------------------|--2----------------|
D#||-------|-----------0-0-0-0-0-0-0-0-|--0----------------|


  H        H           W                   H        H         
--------------------|-------------------|--------------------|
--------------------|-------------------|--------------------|
--6--------2--------|-------------------|--6--------2--------|
--6--------2--------|--2----------------|--6--------2--------|
--4--------0--------|--2----------------|--4--------0--------|
--------------------|--0----------------|--------------------|


  W                   H        H           W                 
-------------------|--------------------|-------------------|
-------------------|--------------------|-------------------|
-------------------|--6--------2--------|-------------------|
--2----------------|--6--------2--------|--2----------------|
--2----------------|--4--------0--------|--2----------------|
--0----------------|--------------------|--0----------------|


  H        H           W                   W                 
--------------------|-------------------|-------------------|
--------------------|-------------------|-------------------|
--6--------2--------|--2----------------|--4----------------|
--6--------2--------|--2----------------|--4----------------|
--4--------0--------|--0----------------|--2----------------|
--------------------|-------------------|-------------------|


  E  E  E  E  E  E  E  E     E  E  E  E  E  E  E  E   
--------------------------|--------------------------|
--------------------------|--------------------------|
--2--2--2--2--6--6--6--6--|--4--4--4--4--4--4--4--4--|
--2--2--2--2--6--6--6--6--|--4--4--4--4--4--4--4--4--|
--0--0--0--0--4--4--4--4--|--2--2--2--2--2--2--2--2--|
--------------------------|--------------------------|


  E  E  E  E  E  E  E  E     E  E  E  E  E  E  E  E   
--------------------------|--------------------------|
--------------------------|--------------------------|
--2--2--2--2--6--6--6--6--|--4--4--4--4--4--4--4--4--|
--2--2--2--2--6--6--6--6--|--4--4--4--4--4--4--4--4--|
--0--0--0--0--4--4--4--4--|--2--2--2--2--2--2--2--2--|
--------------------------|--------------------------|


  S S S S S S S S S S S S Q       W                   W                 
-------------------------------|-------------------|-------------------|
-------------------------------|-------------------|-------------------|
------------------------x-4----|--L----------------|-------------------|
------------x-2-2-2-2---x-4----|--L----------------|--2----------------|
--2-2-2-2---x-0-0-0-0---x-2----|--L----------------|--2----------------|
--0-0-0-0---x------------------|-------------------|--0----------------|


  H        H           W                   H        H         
--------------------|-------------------|--------------------|
--------------------|-------------------|--------------------|
--6--------2--------|-------------------|--6--------2--------|
--6--------2--------|--2----------------|--6--------2--------|
--4--------0--------|--2----------------|--4--------0--------|
--------------------|--0----------------|--------------------|


  W                   H        H           W                 
-------------------|--------------------|-------------------|
-------------------|--------------------|-------------------|
-------------------|--6--------2--------|-------------------|
--2----------------|--6--------2--------|--2----------------|
--2----------------|--4--------0--------|--2----------------|
--0----------------|--------------------|--0----------------|


  H        H           W                   W                 
--------------------|-------------------|-------------------|
--------------------|-------------------|-------------------|
--6--------2--------|--2----------------|--4----------------|
--6--------2--------|--2----------------|--4----------------|
--4--------0--------|--0----------------|--2----------------|
--------------------|-------------------|-------------------|


  E  E  E  E  E  E  E  E     E  E  E  E  E  E  E  E   
--------------------------|--------------------------|
--------------------------|--------------------------|
--2--2--2--2--6--6--6--6--|--4--4--4--4--4--4--4--4--|
--2--2--2--2--6--6--6--6--|--4--4--4--4--4--4--4--4--|
--0--0--0--0--4--4--4--4--|--2--2--2--2--2--2--2--2--|
--------------------------|--------------------------|


  E  E  E  E  E  E  E  E     E  E  E  E  E  E  S   S  S S  
--------------------------|-------------------------------|
--------------------------|-------------------------------|
--2--2--2--2--6--6--6--6--|--4--4--4--4--4--4--9h-11p-9-L-|
--2--2--2--2--6--6--6--6--|--4--4--4--4--4--4-------------|
--0--0--0--0--4--4--4--4--|--2--2--2--2--2--2-------------|
--------------------------|-------------------------------|


  S S S S S S S S S S S S S S S S    S S S S S S S S S S S S S S S S  
----------------------------------|----------------------------------|
----------------------------------|----------------------------------|
----------------------------------|----------------------------------|
--2-2-2-2-2-2-2-2-----------------|--4-4-4-4-4-4-4-4-4-4-4-4-4-4-4-4-|
--0-0-0-0-0-0-0-0-2-2-2-2-2-2-2-2-|--2-2-2-2-2-2-2-2-2-2-2-2-2-2-2-2-|
------------------0-0-0-0-0-0-0-0-|----------------------------------|


  S S S S S S S S S S S S S S S S    S S S S S S S S S S S S S S S S            
----------------------------------|----------------------------------|----|----|
----------------------------------|----------------------------------|----|----|
----------------------------------|----------------------------------|----|----|
--2-2-2-2-2-2-2-2-----------------|--4-4-4-4-4-4-4-4-4-4-4-4-4-4-4-4-|----|----|
--0-0-0-0-0-0-0-0-2-2-2-2-2-2-2-2-|--2-2-2-2-2-2-2-2-2-2-2-2-2-2-2-2-|----|----|
------------------0-0-0-0-0-0-0-0-|----------------------------------|----|----|


            S S S S S S S S S S S S S S S S    S S S S S S S S S S S S S S S S  
----|----|----------------------------------|----------------------------------|
----|----|----------------------------------|----------------------------------|
----|----|--4---4---4---4-------------------|--6---6---6---6---2---2---2---2---|
----|----|--4---4---4---4---2---2---2---2---|--6---6---6---6---2---2---2---2---|
----|----|--2---2---2---2---2---2---2---2---|--4---4---4---4---0---0---0---0---|
----|----|------------------0---0---0---0---|----------------------------------|


  S S S S S S S S S S S S S S S S    W                   W                 
----------------------------------|-------------------|-------------------|
----------------------------------|-------------------|-------------------|
--4---4---4---4-------------------|--4----------------|--L----------------|
--4---4---4---4---2---2---2---2---|--4----------------|--L----------------|
--2---2---2---2---2---2---2---2---|--2----------------|--L----------------|
------------------0---0---0---0---|-------------------|-------------------|


  E  E  E  E  E  E  E  E     E  E  E  E  E  E  E  E   
--------------------------|--------------------------|
--------------------------|--------------------------|
--2--2--2--2--6--6--6--6--|--4--4--4--4--4--4--4--4--|
--2--2--2--2--6--6--6--6--|--4--4--4--4--4--4--4--4--|
--0--0--0--0--4--4--4--4--|--2--2--2--2--2--2--2--2--|
--------------------------|--------------------------|


  E  E  E  E  E  E  E  E     E  E  E  E  E  E  S   S  S S  
--------------------------|-------------------------------|
--------------------------|-------------------------------|
--2--2--2--2--6--6--6--6--|--4--4--4--4--4--4--9h-11p-9-L-|
--2--2--2--2--6--6--6--6--|--4--4--4--4--4--4-------------|
--0--0--0--0--4--4--4--4--|--2--2--2--2--2--2-------------|
--------------------------|-------------------------------|


  S S S S S S S S S S S S S S S S    S S S S S S S S S S S S S S S S  
----------------------------------|----------------------------------|
----------------------------------|----------------------------------|
----------------------------------|----------------------------------|
--2-2-2-2-2-2-2-2-----------------|--4-4-4-4-4-4-4-4-4-4-4-4-4-4-4-4-|
--0-0-0-0-0-0-0-0-2-2-2-2-2-2-2-2-|--2-2-2-2-2-2-2-2-2-2-2-2-2-2-2-2-|
------------------0-0-0-0-0-0-0-0-|----------------------------------|


  S S S S S S S S S S S S S S S S    S S S S S S S S S S S S S S S S  
----------------------------------|----------------------------------|
----------------------------------|----------------------------------|
----------------------------------|----------------------------------|
--2-2-2-2-2-2-2-2-----------------|--4-4-4-4-4-4-4-4-4-4-4-4-4-4-4-4-|
--0-0-0-0-0-0-0-0-2-2-2-2-2-2-2-2-|--2-2-2-2-2-2-2-2-2-2-2-2-2-2-2-2-|
------------------0-0-0-0-0-0-0-0-|----------------------------------|


  W                   W                  
-------------------|-------------------||
-------------------|-------------------||
-------------------|-------------------||
--2----------------|--L----------------||
--2----------------|--L----------------||
--0----------------|--L----------------||




Duration Legend
---------------
W - whole
H - half
Q - quarter
E - 8th
S - 16th
T - 32nd
X - 64th
. - note dotted
|-n-|  - n-tuplets


Tablature Legend
----------------
L - tied note
x - dead note
g - grace note
(n) - ghost note
> - accentuded note
NH - natural harmonic
AH - artificial harmonic
TH - tapped harmonic
SH - semi harmonic
PH - pitch harmonic
h - hammer on
p - pull off
b - bend
br - bendRelease
pb - preBend
pbr - preBendRelease
brb - bendReleaseBend
\n/ - tremolo bar dip
\n - tremolo bar dive
-/n - tremolo bar Release up
/n\ - tremolo bar inverted dip
/n - tremolo bar return
-\n - tremolo bar Release down
S - shift slide
s - legato slide
/ -  slide into from below or out of upwards
\ -  slide into from above or out of downwards
~ - vibrato
W - wide vibrato
tr - trill
TP - tremolo picking
T - tapping
S - slap
P - pop
< - fade in
^ - brush up
v - brush down





Duration Legend
---------------
W - whole
H - half
Q - quarter
E - 8th
S - 16th
T - 32nd
X - 64th
. - note dotted
|-n-|  - n-tuplets


Tablature Legend
----------------
L - tied note
x - dead note
g - grace note
(n) - ghost note
> - accentuded note
NH - natural harmonic
AH - artificial harmonic
TH - tapped harmonic
SH - semi harmonic
PH - pitch harmonic
h - hammer on
p - pull off
b - bend
br - bendRelease
pb - preBend
pbr - preBendRelease
brb - bendReleaseBend
\n/ - tremolo bar dip
\n - tremolo bar dive
-/n - tremolo bar Release up
/n\ - tremolo bar inverted dip
/n - tremolo bar return
-\n - tremolo bar Release down
S - shift slide
s - legato slide
/ -  slide into from below or out of upwards
\ -  slide into from above or out of downwards
~ - vibrato
W - wide vibrato
tr - trill
TP - tremolo picking
T - tapping
S - slap
P - pop
< - fade in
^ - brush up
v - brush down

Добавлено: 26.04.2012
Другие материалы по этой песне:

Страница создана 27.02.2012
http://primanota.ru/enjoy-destroy/lbj-chords.htm
Привет, Гость.
Предлагаем пройти революционный курс по гитаре.
Подарок от PrimaNota.Ru, забирай!