PrimaNota.ru - самый крупный в мире бесплатный архив песенных текстов, аккордов, табулатур и нот


Enjambre - Viceversa - таба, видео

Регистрация Запомнить меня
Войти через:  Facebook Google Twitter Vk Yandex Mail.ru

Enjambre - Viceversa - таба, видео

Печатать
Просмотров: 89
fergto78
--## Tablatura de mi versión para Viceversa de Enjambre,
por Fernando Arroyo, checa mi
cover, para mayor referencia de la tab, en youtube,
http://youtu.be/9rrBzPxebEo
además, podrás bajar los backing tracks para practicar :)
Afinación estándar

Intro 

Guitarra 01
|-------------------------|
|-------------------------|
|.-13--11--13--14--10--7-.|2 tiempos
|.-----------------------.|
|--11--9---11--12--8---5--|
|-------------------------|
  F#m
|-9---|
|-10--|
|-11--|
|-11--|
|-----|
|-----|

Guitarra 02
   F#m   Dm
|--9-----10---|
|--10----10---|
|.-11----10--.|2 tiempos
|.-11----12--.|
|--9-----12---|
|--------10---|
  F#m
|-9---|
|-10--|
|-11--|
|-11--|
|-9---|
|-----|

Verso con puente al coro

Guitarra 01
  F#m
|-9---12b----------------------------------|
|-10------12b------------------------------|
|-11-----------10--9---11--13--14--9--7--9-|
|-11---------------------------------------|
|--------------8---7---9---11--12--7--5--7-|
|------------------------------------------|

Guitarra 02
  F#m  Dm     Dm7  C#m7 F#m        Bm7   E7no5
|-9----10---------------9------------------|
|-10---10-----10---9----10---------7-----5-|
|-11---10-----10---9----11---------7-----7-|
|-11---12-----10---9----11---------7-----6-|
|-9----12---------------9----------------7-|
|------10-----10---9---------------7-------|

Coro 

Guitarra 01
|----------------------16------|
|--------17-14~~----14----17~~-|
|.----13---------14-----------.|3 tiempos
|.-14-------------------------.|
|------------------------------|
|------------------------------|

Guitarra 02
   Amaj7 D5
 (3 tiempos)   C#5            D5
|--12--------|-------------------------------|
|--14--------|-------------------------------|
|.-13-------.|-------------------------------|
|.-14----12-.|-11-14--11--14--12--16--12--16-|
|--12----12--|-------------------------------|
|--------10--|-9--12--9---12--10--14--10--14-|

Guitarra 01
|----------------------19-16~~-|
|--------17-14~~----14---------|
|.----13---------14-----------.|3 tiempos
|.-14-------------------------.|
|------------------------------|
|------------------------------|

Guitarra 02
   Amaj7 D5
 (3 tiempos)   C#5            D5
|--12--------|--------(2 tiempos)--------------|
|--14--------|---------------------------------|
|.-13-------.|.-------------------------------.|
|.-14----12-.|.-11-14--11--14--12--16--12--16-.|
|--12----12--|---------------------------------|
|--------10--|--9--12--9---12--10--14--10--14--|

Guitarra 01
|-------------------------|
|-------------------------|
|.-13--11--13--14--10--7-.|2 tiempos
|.-----------------------.|
|--11--9---11--12--8---5--|
|-------------------------|
 
 F#m
|-9---|
|-10--|
|-11--|
|-11--|
|-----|
|-----|

Guitarra 02
   F#m   Dm
|--9-----10---|
|--10----10---|
|.-11----10--.|2 tiempos
|.-11----12--.|
|--9-----12---|
|--------10---|
  F#m
|-9---|
|-10--|
|-11--|
|-11--|
|-9---|
|-----|

Verso con puente al coro

Guitarra 01
|-12b--------------------------------|
|----12b-----------------------------|
|---------10--9--11--13--14--9--7--9-|
|------------------------------------|
|---------8---7--9---11--12--7--5--7-|
|------------------------------------|

Guitarra 02
         Dm7  C#m7 F#m        Bm7   E7no5
|------------------9------------------|
|--------10---9----10---------7-----5-|
|--------10---9----11---------7-----7-|
|--------10---9----11---------7-----6-|
|------------------9----------------7-|
|--------10---9---------------7-------|

Coro 

Guitarra 01
|----------------------16------|
|--------17-14~~----14----17~~-|
|.----13---------14-----------.|3 tiempos
|.-14-------------------------.|
|------------------------------|
|------------------------------|

Guitarra 02
   Amaj7 D5
 (3 tiempos)   C#5            D5
|--12--------|-------------------------------|
|--14--------|-------------------------------|
|.-13-------.|-------------------------------|
|.-14----12-.|-11-14--11--14--12--16--12--16-|
|--12----12--|-------------------------------|
|--------10--|-9--12--9---12--10--14--10--14-|

Guitarra 01
|----------------------19-16~~-|
|--------17-14~~----14---------|
|.----13---------14-----------.|3 tiempos
|.-14-------------------------.|
|------------------------------|
|------------------------------|

Guitarra 02
   Amaj7 D5
 (3 tiempos)   C#5            D5
|--12--------|--------(2 tiempos)--------------|
|--14--------|---------------------------------|
|.-13-------.|.-------------------------------.|
|.-14----12-.|.-11-14--11--14--12--16--12--16-.|
|--12----12--|---------------------------------|
|--------10--|--9--12--9---12--10--14--10--14--|

Puente al outro

Guitarra 01
|-----------------------------------------------|
|-----------------------------------------------|
|-10--9--16--11--15--18--16--19--14--13--16--14-|
|-----------------------------------------------|
|-8---7--14--9---13--16--14--17--12--11--14--12-|
|-----------------------------------------------|

Guitarra 02
  Dm7  C#m7 F#m        Bm7   E7no5
|-----------9------------------|
|-10---9----10---------7-----5-|
|-10---9----11---------7-----7-|
|-10---9----11---------7-----6-|
|-----------9----------------7-|
|-10---9---------------7-------|

Outro 

Guitarra 01
|-------------------|
|-------------------|
|.--13--11--13--10-.|4 tiempos
|.-----------------.|
|---11--9---11--8---|
|-------------------|

|----------|
|----------|
|--13~~~~~~|
|----------|
|--11~~~~~~|
|----------|

Guitarra 02
   F#m   Dm
|--9-----10---|
|--10----10---|
|.-11----10--.|2 tiempos
|.-11----12--.|
|--9-----12---|
|--------10---|
   Amaj7   Dm
|--0-------1---|
|--2-------3---|
|.-1-------2--.|2 tiempos
|.-2-------0--.|
|--0-----------|
|--------------|
   Amaj7
|--0~~~~~~|
|--2~~~~~~|
|--1~~~~~~|
|--2~~~~~~|
|--0~~~~~~|
|---------|
Добавлено: 20.12.2013
Другие материалы по этой песне:
  • Аккорды и текст

Страница создана 26.11.2013
http://primanota.ru/enjambre/viceversa-chords.htm
Привет, Гость.
Предлагаем пройти революционный курс по гитаре.
Подарок от PrimaNota.Ru, забирай!