PrimaNota.ru - самый крупный в мире бесплатный архив песенных текстов, аккордов, табулатур и нот


Enjambre - Impacto - бас-таба, видео

Регистрация Запомнить меня
Войти через:  Facebook Google Twitter Vk Yandex Mail.ru

Enjambre - Impacto - бас-таба, видео

Печатать
Просмотров: 94
Intro/Verso
G|-----------|------------|-----------|------------|
D|-------2---|------------|-----------|------------|x3
A|--4--44--4-|------------|--2—222----|------------|
E|-----------|--2--220--2-|---------2-|--4--444--4-|

G|-----------|------------|-----------|------------|
D|-------2---|--4--446--4-|-----------|------------|x1
A|--4--44--4-|------------|--2--222---|------------|
E|-----------|------------|---------2-|--4--444--2-|

Pre Coro
G|-------|--------------------------------------|
D|-------|---------21--21--18---16-16/----------|x1
A|--4/16-|-16-1918--------------------999999999-|
E|-------|--------------------------------------|

Coro 1
G|-----------------|-----------------|----------------|
D|-----------------|-----------------|----------------|x3
A|-7—7-—9-11-9-7---|-7-7--9-11-9-7-9-|---7---7---7----|
E|---------------9-|-----------------|-9--8---9---8-8-|

Coro 2
G|---------|---------|---------|----------|----------|-------|
D|---------|---------|-----6-4-|----------|----------|-------|
A|---------|-2-222---|---------|-2-4-6-79-|-0-0-00-0-|--3--2-|
E|-2-222-2-|-------2-|-4-44----|----------|----------|-------|

Pre Verso
G|------|-----|     G|--------------|
D|------|-----|x2   D|--------------| -Intro/Verso-x2
A|-4----|-4---|     A|-4(x17)-------|
E|----4-|---4-|     E|-------4(x17)-|

Verso
G|------------|----------|----------|----------|
D|------2---2-|-4-446--4-|----------|----------|
A|-4--4---4---|----------|--2-222---|----------|
E|------------|----------|--------2-|-4—-444—2-|

Pre Coro(diferente al otro Pre coro)
G|-------------------------|
D|-------------------------|
A|-4----4/2222222222222222-|
E|-------------------------|

-Coro 1-x3

Coro 2
G|---------|---------|---------|----------|----------|-------|
D|---------|---------|-----6-4-|----------|----------|-------|
A|---------|-2-222---|---------|-2-4-6-79-|-0-0-00-0-|-3(x8)-|
E|-2-222-2-|-------2-|-4-44----|----------|----------|-------|

-Coro 1-x3

Final
G|-----------|-------||
D|-----------|-------||
A|-0—0-000-0-|-3—3/7-||
E|-----------|-------||
Добавлено: 16.07.2012
Другие материалы по этой песне:

Страница создана 23.03.2012
http://primanota.ru/enjambre/impacto-chords.htm
Привет, Гость.
Предлагаем пройти революционный курс по гитаре.
Подарок от PrimaNota.Ru, забирай!