PrimaNota.ru - самый крупный в мире бесплатный архив песенных текстов, аккордов, табулатур и нот


Enjambre - Fe Linea Recta - таба, бас-таба, видео

Регистрация Запомнить меня
Войти через:  Facebook Google Twitter Vk Yandex Mail.ru

Enjambre - Fe Linea Recta - таба, бас-таба, видео

Печатать
Просмотров: 154
--Tablatura de mi versión para “Fe, línea recta” de Enjambre,
por Fernando Arroyo, checa mi
cover, para mayor referencia de la tab, en youtube,
http://youtu.be/zwprpx7ABG4
además, podrás bajar los backing tracks para practicar :)


Intro y verso

Gm7 Fm7 Gm7 Fm7
G5 A5 G5 A5    G5
Gm7 Fm7 Gm7 Fm7
G5 A5 G5 A5   
G5 A5 G5 A5

Solo

Guitarra 2 toca el acorde D#maj9no5 (X6576X)

Guitarra 1:
e|-----------------------|
B|----6---6h8----6---6h8-|
G|-/7---7-----/7---7-----|
D|-----------------------|
A|-----------------------|
E|-----------------------|
  
|------------------------------|
|----6---6h8-------------------|
|-/7---7-----7-7-7/5-5-5-5/3p0-|
|------------------------------|
|------------------------------|
|------------------------------|

Guitarra 1 toca G5

Guitarra 2
|-------------------------------------------|
|-------------------------------------------|
|-5fb-5fb-5fb-5fb-5fbr-5~~-3~~-----------3~~|
|-----------------------------5-5p0h3h5-----|
|-------------------------------------------|
|-------------------------------------------|

Guitarra 2 toca el acorde D#maj9no5 (X6576X)

Guitarra 1:
e|-----------------------|
B|----6---6h8----6---6h8-|
G|-/7---7-----/7---7-----|
D|-----------------------|
A|-----------------------|
E|-----------------------|
  
|------------------------------|
|----6---6h8-------------------|
|-/7---7-----7-7-7/5-5-5-5/3p0-|
|------------------------------|
|------------------------------|
|------------------------------|

Guitarra 2
|------------------------------|
|------------------------------|
|---------3~~---------5-5p3----|
|-3-3-3-5-----3-3-3-5-------5~~|
|------------------------------|
|------------------------------|

Puente

  E7no5 D#7no5 D7no5 C5 G5
|-------------------------|
|-------------------------|
|-7-----6------5-----5----|
|-6-----5------4-----5--5-|
|-7-----6------5-----3--5-|
|-----------------------3-|
 
  E7no5 D#7no5 D7no5 C5 C5
|-------------------------|
|-------------------------|
|-7-----6------5-----5--5-|
|-6-----5------4-----5--5-|
|-7-----6------5-----3--3-|
|-------------------------|

Guitarra 1
G5 A5 C5 C5

Guitarra 2

|--------------------------------------|
|--------------------------------------|
|--------------------------------------|
|-3-3-3-5~~-3-0-3-3-3-5~~-3-0-3-3-3-5~~|
|--------------------------------------|
|--------------------------------------|

|-----------------|
|-----------------|
|-3--5--7--10--12-|
|-----------------|
|-----------------|
|-----------------|
 
G5 A5 G5 A5   

G5 F5 G5 F5 
F5 F#5 G5
Добавлено: 04.08.2013
Другие материалы по этой песне:
  • Аккорды и текст

Страница создана 04.08.2013
http://primanota.ru/enjambre/fe-linea-recta-chords.htm
Привет, Гость.
Предлагаем пройти революционный курс по гитаре.
Подарок от PrimaNota.Ru, забирай!