PrimaNota.ru - самый крупный в мире бесплатный архив песенных текстов, аккордов, табулатур и нот


Enjambre - El Ordinario - таба, видео

Регистрация Запомнить меня
Войти через:  Facebook Google Twitter Vk Yandex Mail.ru

Enjambre - El Ordinario - таба, видео

Печатать
Просмотров: 126
--## Tablatura de mi versión para El Ordinario de Enjambre,
por Fernando Arroyo, checa mi
cover, para mayor referencia de la tab, en youtube,
http://youtu.be/UPl8GIiOwR0
además, podrás bajar los backing tracks para practicar :)
http://www.facebook.com/fergto78
twitter.com/fergto78
--##

-Afinación Estándar  -acordes sin tiempos

Guitarra 1

Intro

    B7
e|--1------|
B|--0------|
G|--2------|
D|--1------|
A|--2------|
E|---------|

Verso

Guitarra 1
  
|------3-----3---------8-------2----|
|----0---0-----0-----0---0---0---0--|
|.---------------0-----------------.|2 tiempos
|.-2-------2-------7-------1-------.|
|-----------------------------------|
|-----------------------------------|

|-----3-----3---------2-----2--------|
|---0---0-----0-----0---0-----0------|
|---------------0---------------0----|
|-2-------2-------1-------1-------2~-|
|------------------------------------|
|------------------------------------|

Guitarra 2
                  B7
|-----------------1------|
|-----------------0------|
|-4---------------2------|
|---5-------5-4---1------|
|-----6---6-------2------|
|-------7----------------|
 
Guitarra 1
                  B7
               |--1------|
               |--0------|
               |--2------|
               |--1------|
               |--2------|
               |---------|
Guitarra 1
  
|------3-----3---------8-------2----|
|----0---0-----0-----0---0---0---0--|
|.---------------0-----------------.|2 tiempos
|.-2-------2-------7-------1-------.|
|-----------------------------------|
|-----------------------------------|

|-----3-----3---------2-----2------|
|---0---0-----0-----0---0-----0----|
|---------------0---------------0--|
|-2-------2-------1-------1--------|
|----------------------------------|
|----------------------------------|

  (2 tiempos)
|------3-----3------|
|----0---0-----0----|
|.---------------0-.|
|.-2-------2-------.|
|-------------------|
|-------------------|

Guitarra 2

|--------0----------------------|
|------0---0--------------------|
|.---0-------0---5---5---5---5-.|2 tiempos
|.-2-----------5---5---4---4---.|
|-------------------------------|
|-------------------------------|

|-------0---------------------|
|-----0---0-------------------|
|---0-------0---5---5---5---5-|
|-2-----------4---4---4---4---|
|-----------------------------|
|-----------------------------|

   Em
|--0----|
|--0----|
|--0----|
|--2----|
|--2----|
|--0----|

Coro

Guitarra 1

|------7-----7----------12------12------|
|----0---0-----0------0----0-------0----|
|.---------------0-------------------0-.|2 tiempos
|.-5-------5-------10--------10--------.|
|---------------------------------------|
|---------------------------------------|

|------14------14-------------|
|----0----0-------0-----------|
|-------------------0---------|
|-13--------13--------13-13~/-|
|-----------------------------|
|-----------------------------|

Guitarra 2

   G5    C5
|------------|
|------------|
|.-12----5--.|dos tiempos
|.-12----5--.|
|--10----3---|
|------------|
   B7
|--1------|
|--0------|
|--2------|
|--1------|
|--2------|
|---------|

Puente

Guitarra 1
           
|---------|-3 tiempos|-----------|
|---------|----------|-----------|
|---------|.----2---.|-----------|
|-------0-|.--1---1-.|---4-5-4-2-|
|---------|-2--------|-2---------|
|-0-2-3---|----------|-----------|

                 *armónicos 
|-2 tiempos|----(7)-|
|----------|----(7)-|
|.----0---.|--------|
|.--2---2-.|--------|
|----------|--------|
|-0--------|-0------|

|---------|-3 tiempos|-----------|
|---------|----------|-----------|
|---------|.----2---.|-----------|
|-------0-|.--1---1-.|---4-5-4-2-|
|---------|-2--------|-2---------|
|-0-2-3---|----------|-----------|
                                    Em
|-3 tiempos|---------|-4 tiempos-|--0-|
|----------|---------|------3----|--0-|
|.----0---.|-------0-|.---2---2-.|--0-|
|.--2---2-.|-0-2-4---|.-0-------.|--2-|
|----------|---------|-----------|--2-|
|-0--------|---------|-----------|--0-|

               B7   
|-4 tiempos-|--1-|
|------3----|--0-|
|.---2---2-.|--2-|
|.-0-------.|--1-|
|-----------|--2-|
|-----------|----|

Guitarra 2
                                  *armónicos
|-------------------------------------|
|-------------------------------------|
|---------------------------------(5)-|
|---------4--2------4-5-4-2-4-2---(5)-|
|-------5------2--2-------------------|
|-0-2-3-------------------------------|

|-------------------------------|
|-------------------------------|
|-------------------------------|
|---------4--2------4-5-4-2-4-2-|
|-------5------2--2-------------|
|-0-2-3-------------------------|

                                   Em
|-------------------------------|--0-|
|-------------------------------|--0-|
|-------------------------------|--0-|
|-0-2-4-5-7--5--4--2--0-2-0-----|--2-|
|---------------------------2---|--2-|
|-----------------------------0-|--0-|

|-------------------------|
|-------------------------|
|-------------------------|
|-0-2-4-5-7--5--4--2--0-2-|
|-------------------------|
|-------------------------|

Verso

Guitarra 1

|------3-----3---------8-------2----|
|----0---0-----0-----0---0---0---0--|
|.---------------0-----------------.|2 tiempos
|.-2-------2-------7-------1-------.|
|-----------------------------------|
|-----------------------------------|

|-----3-----3---------2-----2--------|
|---0---0-----0-----0---0-----0------|
|---------------0---------------0----|
|-2-------2-------1-------1-------2~-|
|------------------------------------|
|------------------------------------|

Guitarra 2
                  B7
|-----------------1------|
|-----------------0------|
|-4---------------2------|
|---5-------5-4---1------|
|-----6---6-------2------|
|-------7----------------|
 
Guitarra 1
                  B7
               |--1------|
               |--0------|
               |--2------|
               |--1------|
               |--2------|
               |---------|
Guitarra 1
  
|------3-----3---------8-------2----|
|----0---0-----0-----0---0---0---0--|
|.---------------0-----------------.|2 tiempos
|.-2-------2-------7-------1-------.|
|-----------------------------------|
|-----------------------------------|

|-----3-----3---------2-----2------|
|---0---0-----0-----0---0-----0----|
|---------------0---------------0--|
|-2-------2-------1-------1--------|
|----------------------------------|
|----------------------------------|
  (2 tiempos)
|------3-----3------|
|----0---0-----0----|
|.---------------0-.|
|.-2-------2-------.|
|-------------------|
|-------------------|

Guitarra 2

|--------0----------------------|
|------0---0--------------------|
|.---0-------0---5---5---5---5-.|2 tiempos
|.-2-----------5---5---4---4---.|
|-------------------------------|
|-------------------------------|

|-------0---------------------|
|-----0---0-------------------|
|---0-------0---5---5---5---5-|
|-2-----------4---4---4---4---|
|-----------------------------|
|-----------------------------|

   Em
|--0----|
|--0----|
|--0----|
|--2----|
|--2----|
|--0----|

Coro

Guitarra 1

|------7-----7----------12------12------|
|----0---0-----0------0----0-------0----|
|.---------------0-------------------0-.|2 tiempos
|.-5-------5-------10--------10--------.|
|---------------------------------------|
|---------------------------------------|

|------14------14------|
|----0----0-------0----|
|.------------------0-.|2 tiempos
|.13--------13--------.|
|----------------------|
|----------------------|

Guitarra 2

   G5    C5
|------------|
|------------|
|.-12----5--.|dos tiempos
|.-12----5--.|
|--10----3---|
|------------|
   B7
|--1------|
|--0------|
|--2------|
|--1------|
|--2------|
|---------|

Pre Puente

Guitarra 1

|----12-----12---------11-----11---------10-----10----|
|--0----0------0-----0----0------0-----0----0------0--|
|----------------0-----------------0-----------------0|
|9--------9--------9--------9--------9--------9-------|
|-----------------------------------------------------|
|-----------------------------------------------------|

|-----12------12----------11------11---------10---|
|---0----0-------0------0----0-------0-----0----0-|
|------------------0-------------------0----------|
|10--------10--------10--------10--------9--------|
|-------------------------------------------------|
|-------------------------------------------------|

|-----8-------7-------14------14-------------|
|---0---0---0---0---0----0-------0-----------|
|----------------------------------0---------|
|-7-------5------13--------13--------13-13~/-|
|--------------------------------------------|
|--------------------------------------------|

Guitarra 2

   Em   Baug  Bm#5  C5   C5              B7
|--0-------------------------------------2-|
|--0----0-----0--------------------------0-|
|--0----0-----0-----5----5---------------2-|
|--2----1-----0-----5----5---------------1-|
|--2----2-----2-----3----3---2-----------2-|
|--0----------------------------5---3------|

Puente

Guitarra 1
           
|---------|-3 tiempos|-----------|
|---------|----------|-----------|
|---------|.----2---.|-----------|
|-------0-|.--1---1-.|---4-5-4-2-|
|---------|-2--------|-2---------|
|-0-2-3---|----------|-----------|

                 *armónicos 
|-2 tiempos|----(7)-|
|----------|----(7)-|
|.----0---.|--------|
|.--2---2-.|--------|
|----------|--------|
|-0--------|-0------|

|---------|-3 tiempos|-----------|
|---------|----------|-----------|
|---------|.----2---.|-----------|
|-------0-|.--1---1-.|---4-5-4-2-|
|---------|-2--------|-2---------|
|-0-2-3---|----------|-----------|
                                    G
|-3 tiempos|---------|-4 tiempos-|--3-|
|----------|---------|------3----|--3-|
|.----0---.|-------0-|.---2---2-.|--4-|
|.--2---2-.|-0-2-4---|.-0-------.|--5-|
|----------|---------|-----------|--5-|
|-0--------|---------|-----------|--3-|

               B7   
|-4 tiempos-|--1-|
|------3----|--0-|
|.---2---2-.|--2-|
|.-0-------.|--1-|
|-----------|--2-|
|-----------|----|

Guitarra 2
                                  *armónicos
|-------------------------------------|
|-------------------------------------|
|---------------------------------(5)-|
|---------4--2------4-5-4-2-4-2---(5)-|
|-------5------2--2-------------------|
|-0-2-3-------------------------------|

|-----------------------------------------|
|-----------------------------------------|
|-----------------------------------------|
|---------4--2------4-5-4-2-4-0-5-0-7-0-9-|
|-------5------2--2-----------------------|
|-0-2-3-----------------------------------|

                                     G
|---------------------------------|--3-|
|---------------------------------|--0-|
|---------------------------------|--0-|
|-2-0-2-4-5-7--5--4--2--0-2-0-----|--0-|
|-----------------------------2---|--2-|
|-------------------------------3-|--3-|

|-------------------------|
|-------------------------|
|-------------------------|
|-0-2-4-5-7--5--4--2--0-2-|
|-------------------------|
|-------------------------|

Outro

Guitarra 1
  
|-----3-----3---------8-------2----|
|---0---0-----0-----0---0---0---0--|
|.--------------0-----------------.|hasta
|.2-------2-------7-------1-------.|desvanecer 
|----------------------------------|
-----------------------------------|

Guitarra 2
|--------0----------------------|
|------0---0--------------------|
|.---0-------0---5---5---5---5-.|hasta
|.-2-----------5---5---4---4---.|desvanecer
|-------------------------------|
|-------------------------------|
Добавлено: 27.11.2013
Другие материалы по этой песне:
  • Аккорды и текст

Страница создана 27.11.2013
http://primanota.ru/enjambre/el-ordinario-chords.htm
Привет, Гость.
Предлагаем пройти революционный курс по гитаре.
Подарок от PrimaNota.Ru, забирай!