PrimaNota.ru - самый крупный в мире бесплатный архив песенных текстов, аккордов, табулатур и нот


Enjambre - Cobarde - таба, видео

Регистрация Запомнить меня
Войти через:  Facebook Google Twitter Vk Yandex Mail.ru

Enjambre - Cobarde - таба, видео

Печатать
Просмотров: 122
despues de la parte del sintetisador empiesa la guitarra  tocando estos acordes es 
rasgueo arriba y abajo pero a una velocidad variada es dificil explicar escuchen como la toca

checa como se escucha: http://www.youtube.com/watch?v=IUFGn2DyPAM
     W                   W
E||-------------------|-------------------|
B||--3----------------|--5----------------|
G||--4----------------|--6----------------|
D||--5----------------|--7----------------|
A||--5----------------|--7----------------|
E||-------------------|-------------------|


                      ^
  E  E  E  E  Q    E  E
----------------------0--|
----------------------0--|
----------------------0--|
--2--4--2-------------2--|
-----------5--2----L--2--|
-------------------------|



                      ^
  E  E  E  E  Q    E  E
----------------------2--|
----------------------2--|
----------------------2--|
--2--4--2-------------4--|
-----------2--5-------4--|
-------------------------|


                     ^
  E  E  E  E  Q    E  E
----------------------0--|
----------------------0--|
----------------------0--|
--2--4--2-------------2--|
-----------5--2----L--2--|
-------------------------|

                      ^
  E  E  E  E  Q    E  E
----------------------2--|
----------------------2--|
----------------------2--|
--2--4--2-------------4--|
-----------2--5-------4--|
-------------------------|


  W                   E  E  E  E  H
--L----------------|-----------------------|
--L----------------|-----------------------|
--L----------------|-----------------------|
--L----------------|--2--4--2--------------|
--L----------------|-----------5--2--------|
-------------------|-----------------------|


              S E  S E  S E  S E  S S E
-----------|-----------------------------|
-----------|-----------------------------|
-----------|-------2-2-------2-2------2--|
-----------|--2-4-------2-4-------2-4----|
-----------|-----------------------------|
-----------|-----------------------------|

solo puse los acordes pero se tocan varias veces, los 2 ultimos no llevan palm mute y 
los rasguean de forma lenta solo 1 vez
  PM PM PM PM PM ^  ^
  E  E  E  E  E  E  Q
-------------------------|
--------------------2----|
-----6--7-----7--4--2----|
--4--6--7--4--7--4--4----|
--4--4--5--4--5--2--4----|
--2--------2-------------|


  Q    Q    Q    Q
-----------------2----|
------------4---------|
-------2--------------|
--4-------------------|
----------------------|
----------------------|


  E  Q    Q    Q    E
--------------------3--|
---------------5-------|
----------3------------|
--4--5-----------------|
-----------------------|
-----------------------|

en esta parte lleba un pekeño slide del 5 al 2
  E  E  Q    Q    Q
------------------5----|
-------------2---------|
--------2--------------|
--5--2-----------------|
-----------------------|
-----------------------|


  E  Q    Q    E  E  E
------------------------|
------------------------|
----------2----------3--|
--2--4---------4--5-----|
------------------------|
------------------------|


  Q    Q    Q    Q
-----------------2----|
------------4---------|
-------2--------------|
--4-------------------|
----------------------|
----------------------|


  E  Q    Q    Q    E
--------------------3--|
---------------5-------|
----------3------------|
--4--5-----------------|
-----------------------|
-----------------------|


  E  E  Q    Q    Q
------------------5----|
-------------2---------|
--------2--------------|
--5--2-----------------|
-----------------------|
-----------------------|


  E  Q    Q    E  E  E
------------------------|
------------------------|
----------2----------3--|
--2--4---------4--5-----|
------------------------|
------------------------|


  E  Q    E  E  Q    E
------------------------|
------------------------|
-------------3--5-------|
--2--4----5-------------|
------------------------|
------------------------|


  E  E  E  E  E  Q     E
--------------------------|-----|
--------------------------|-----|
--------------------------|-----|
-----------7-----9----12--|-----|
--7--9--7-----------------|-----|
--------------------------|-----|


  E  E  E  E  Q    E   E
--------------------------|
--------------------------|
--------------7----9--12--|
--7--9--7--9--------------|
--------------------------|
--------------------------|


   E   E   E   E   E   Q     E
--------------------------------|
--------------------------------|
--------------------------------|
------------------16--12----14--|
--14--16--14--16----------------|
--------------------------------|


   E   E   E   E   E   Q     E
--------------------------------|
----------------------------15--|
----------------------16--------|
------------------14------------|
--14--16--14--16----------------|
--------------------------------|


  S E  S E  S E  S E  S S E
-----------------------------|
-----------------------------|
-------2-2-------2-2------2--|
--2-4-------2-4-------2-4----|
-----------------------------|
-----------------------------|


  PM PM PM PM PM ^  ^
  E  E  E  E  E  E  Q
-------------------------|
--------------------2----|
-----6--7-----7--4--2----|
--4--6--7--4--7--4--4----|
--4--4--5--4--5--2--4----|
--2--------2-------------|


  Q    Q    Q    Q
-----------------2----|
------------4---------|
-------2--------------|
--4-------------------|
----------------------|
----------------------|


  E  Q    Q    Q    E
--------------------3--|
---------------5-------|
----------3------------|
--4--5-----------------|
-----------------------|
-----------------------|


  E  E  Q    Q    Q
------------------5----|
-------------2---------|
--------2--------------|
--5--2-----------------|
-----------------------|
-----------------------|


  E  Q    Q    E  E  E
------------------------|
------------------------|
----------2----------3--|
--2--4---------4--5-----|
------------------------|
------------------------|


  Q    Q    Q    Q
-----------------2----|
------------4---------|
-------2--------------|
--4-------------------|
----------------------|
----------------------|


  E  Q    Q    Q    E
--------------------3--|
---------------5-------|
----------3------------|
--4--5-----------------|
-----------------------|
-----------------------|


  E  E  Q    Q    Q
------------------5----|
-------------2---------|
--------2--------------|
--5--2-----------------|
-----------------------|
-----------------------|


  E  Q    Q    E  E  E
------------------------|
------------------------|
----------2----------3--|
--2--4---------4--5-----|
------------------------|
------------------------|

                        aqui empiza la ultima parte de la cancion es como el intro
  E  Q    E  E  Q    E     W
------------------------|-------------------|
------------------------|--3----------------|
-------------3--5-------|--4----------------|
--2--4----5-------------|--5----------------|
------------------------|--5----------------|
------------------------|-------------------|


  W                   H        H
-------------------|--------------------|
--5----------------|--3--------6--------|
--6----------------|--4--------7--------|
--7----------------|--5--------8--------|
--7----------------|--5--------8--------|
-------------------|--------------------|


  W
-------------------||
--2----------------||
--2----------------||
--2----------------||
--0----------------||
-------------------||

si no le entiendes checa mi video en youutube y si sigues sin entender manda mensaje a 
mi cuenta o comentario en el video de youtube
Добавлено: 16.05.2012
Другие материалы по этой песне:

Страница создана 16.05.2012
http://primanota.ru/enjambre/cobarde-chords.htm
Привет, Гость.
Предлагаем пройти революционный курс по гитаре.
Подарок от PrimaNota.Ru, забирай!