PrimaNota.ru - самый крупный в мире бесплатный архив песенных текстов, аккордов, табулатур и нот


Enjambre - Ausencia De Cocina - таба, видео

Регистрация Запомнить меня
Войти через:  Facebook Google Twitter Vk Yandex Mail.ru

Enjambre - Ausencia De Cocina - таба, видео

Печатать
Просмотров: 89
fergto78
--## Tablatura de mi versión para Ausencia de cocina de Enjambre,
por Fernando Arroyo, checa mi
cover, para mayor referencia de la tab, en youtube,
http://youtu.be/FO0nr4PrYDU
además, podrás bajar los backing tracks para practicar :)
Afinación estándar
Intro 
  F#5
|-------------------------------|
|------(3 tiempos)--------------|
|.-----------------------------.|
|.-----------------------------.|
|--4-4-x-x-4-4-----4-x-4--------|
|--2-2-x-x-2-2-5-5-2-x-2-0-0-1--|

|------------------------------|
|------------------------------|
|------------------------------|
|------------------------------|
|-4-4-x-x-4-4-----4-x-4------4-|
|-2-2-x-x-2-2-5-5-2-x-2--0-1-2-|

Verso 
  F#m                     Bm              C#m7
|-2--2--------2--2--------2--2--------2---4---|
|-2----2------2----2------3----3------3---5---|
|-2------2----2------2----4------4----4---4---|
|-4-----------4-----------4-----------4---6---|
|-4-----------4--------2--2--------2--2---4---|
|-2--------2--2-----------------------------2-|
  F#m                     Bm              C#m7
|-2--2--------2--2--------2--2--------2---4-|
|-2----2------2----2------3----3------3---5-|
|-2------2----2------2----4------4----4---4-|
|-4-----------4-----------4-----------4---6-|
|-4-----------4--------2--2--------2--2---4-|
|-2--------2--2-----------------------------|

Puente 
  F#5
|---------------------------------------|
|---------------------------------------|
|---------------------------------------|
|---------------------------------------|
|-4-4-4-4-4-4-4-----4-4-4-4-4-4-4-------|
|-2-2-2-2-2-2-2-5-5-2-2-2-2-2-2-2-0-0-1-|
p.m. . . . . . . . . . . . . . . . . . .

|---------------------------------------|
|---------------------------------------|
|---------------------------------------|
|---------------------------------------|
|-4-4-4-4-4-4-4-----4-4-4-4-4-4-4-0-0-1-|
|-2-2-2-2-2-2-2-5-5-2-2-2-2-2-2-2-------|
p.m. . . . . . . . . . . . . . . . . . .
  B5 
|---------------------------------------|
|---------------------------------------|
|---------------------------------------|
|-4-4-4-4-4-4-4-----4-4-4-4-4-4-4-------|
|-2-2-2-2-2-2-2-5-5-2-2-2-2-2-2-2-0-0-1-|
|---------------------------------------|
p.m. . . . . . . . . . . . . . . . . . .
                     C#5    E5
|---------------------------------|
|---------------------------------|
|--------------------6-6-6--9-9-9-|
|-4-4-4-4-4-4-4------6-6-6--9-9-9-|
|-2-2-2-2-2-2-2-5-5--4-4-4--7-7-7-|
|---------------------------------|
p.m. . . . . . . . .

coro 
   A      F#m7
|--9------9----|
|--10-----10---|
|.-9------9---.|3 tiempos
|.-11-----11--.|
|--0------10---|
|--------------|
  B       E7
|-7-------7----|
|-7-------9----|
|-8-------7----|
|-9-------9----|
|-9-------7----|
|-7------------|
   A      F#m7
|--9------9----|
|--10-----10---|
|.-9------9---.|3 tiempos
|.-11-----11--.|
|--0------10---|
|--------------|
  B       E7    C#7
|-7-------7-----9---|
|-7-------9-----9---|
|-8-------7-----10--|
|-9-------9-----9---|
|-9-------7-----11--|
|-7-------------9---|

Puente al verso 
  F#5
|-----------------------------|
|-----------------------------|
|-----------------------------|
|-----------------------------|
|-4-4-x-x-4-4-----4-x-4-------|
|-2-2-x-x-2-2-5-5-2-x-2-0-0-1-|


  F#5
|------------------------------|
|------------------------------|
|------------------------------|
|------------------------------|
|-4-4-x-x-4-4-----4-x-4------4-|
|-2-2-x-x-2-2-5-5-2-x-2--0-1-2-|

Verso 
  F#m                     Bm              C#m7
|-2--2--------2--2--------2--2--------2---4---|
|-2----2------2----2------3----3------3---5---|
|-2------2----2------2----4------4----4---4---|
|-4-----------4-----------4-----------4---6---|
|-4-----------4--------2--2--------2--2---4---|
|-2--------2--2-----------------------------2-|
  F#m                     Bm              C#m7
|-2--2--------2--2--------2--2--------2---4-|
|-2----2------2----2------3----3------3---5-|
|-2------2----2------2----4------4----4---4-|
|-4-----------4-----------4-----------4---6-|
|-4-----------4--------2--2--------2--2---4-|
|-2--------2--2-----------------------------|

Puente 
  F#5
|---------------------------------------|
|---------------------------------------|
|---------------------------------------|
|---------------------------------------|
|-4-4-4-4-4-4-4-----4-4-4-4-4-4-4-------|
|-2-2-2-2-2-2-2-5-5-2-2-2-2-2-2-2-0-0-1-|
p.m. . . . . . . . . . . . . . . . . . .
  F#5
|---------------------------------------|
|---------------------------------------|
|---------------------------------------|
|---------------------------------------|
|-4-4-4-4-4-4-4-----4-4-4-4-4-4-4-0-0-1-|
|-2-2-2-2-2-2-2-5-5-2-2-2-2-2-2-2-------|
p.m. . . . . . . . . . . . . . . . . . .
  B5 
|---------------------------------------|
|---------------------------------------|
|---------------------------------------|
|-4-4-4-4-4-4-4-----4-4-4-4-4-4-4-------|
|-2-2-2-2-2-2-2-5-5-2-2-2-2-2-2-2-0-0-1-|
|---------------------------------------|
p.m. . . . . . . . . . . . . . . . . . .
                     C#5    E5
|---------------------------------|
|---------------------------------|
|--------------------6-6-6--9-9-9-|
|-4-4-4-4-4-4-4------6-6-6--9-9-9-|
|-2-2-2-2-2-2-2-5-5--4-4-4--7-7-7-|
|---------------------------------|
p.m. . . . . . . . .

coro 
   A      F#m7
|--9------9----|
|--10-----10---|
|.-9------9---.|3 tiempos
|.-11-----11--.|
|--0------10---|
|--------------|
  B       E7
|-7-------7----|
|-7-------9----|
|-8-------7----|
|-9-------9----|
|-9-------7----|
|-7------------|
   A      F#m7
|--9------9----|
|--10-----10---|
|.-9------9---.|3 tiempos
|.-11-----11--.|
|--0------10---|
|--------------|
  B       E7    C#7
|-7-------7-----9---|
|-7-------9-----9---|
|-8-------7-----10--|
|-9-------9-----9---|
|-9-------7-----11--|
|-7-------------9---|

Outro 
   F#5
|-------------------------------|
|------(3 tiempos)--------------|
|.-----------------------------.|
|.-----------------------------.|
|--4-4-x-x-4-4-----4-x-4--------|
|--2-2-x-x-2-2-5-5-2-x-2-0-0-1--|

|-------------------------------|
|-------------------------------|
|-------------------------------|
|-------------------------------|
|-4-4-x-x-4-4-----4-x-4------4/-|
|-2-2-x-x-2-2-5-5-2-x-2--0-1-2/-|
Добавлено: 05.12.2013
Другие материалы по этой песне:
  • Аккорды и текст

Страница создана 05.12.2013
http://primanota.ru/enjambre/ausencia-de-cocina-chords.htm
Привет, Гость.
Предлагаем пройти революционный курс по гитаре.
Подарок от PrimaNota.Ru, забирай!