PrimaNota.ru - самый крупный в мире бесплатный архив песенных текстов, аккордов, табулатур и нот


Enistonk - Monster Of The Love - бас-таба, видео

Регистрация Запомнить меня
Войти через:  Facebook Google Twitter Vk Yandex Mail.ru

Enistonk - Monster Of The Love - бас-таба, видео

Печатать
Просмотров: 75
-------------------------------------------------------------------------------
                             monster of the love - Enistonk
-------------------------------------------------------------------------------
Tabbed by:ENISTONK MUSIC
E-mail:

Tuning:STANDARD
INTRO
G|-------------------------------------3333-------------------------------------|
D|-------------------------------3h5-5--------5555555555---3--------------------|
A|-------------------------------------------------------5---5-3----------------|
E|33--------33--------33------------------------------------------5-33333333----|
INTRO PRT2
G|-----------------------------------------------------------------------------|
D|----------3h5---3h5----------------------------------3h5---3h5---------------|
A|-----------------------------------8-6-5-6-----------------------------------|
E|333333333---------------333333333-----------333333333------------------------|
INTRO PRT3
G|-----------------------------------------------------------------------------|
D|--------------------------555555-77777-999999-12-12-12-12-12-----------------|
A|-----------------------------------------------------------------------------|
E|33333-55555-77777-555555-----------------------------------------------------|
MAIN FIG
G|-----------------------------------------------------------------------------|
D|----------3h5---3h5----------------------------------3h5---3h5---------------|
A|-----------------------------------8-6-5-6-----------------------------------|
E|333333333---------------333333333-----------333333333------------------------|
BREAK
G|-----------------------------------------------------------------------------|
D|-----------------------------------------------------------------------------|
A|-----------------------------------------------------------------------------|
E|-3-3--1-1--5-5--3-3-1-3------------------------------------------------------|
CHORUS
G|-----------------------------------------------------------------------------|
D|-----------------------------------------------------------------------------|
A|------666666--011111--33333-----------666666--011111--33333------------------|
E|33333--------------------------33333-----------------------------------------|
INTERLUDE
G|------------------------------------------------------------------------------|
D|------------------------------------------------------------------------------|
A|-------------------------------------------------7----------------------------|
E|-3-00-3-00-3-X4--------------------------------8---8-3------------------------|
 


| /  slide up
| \  slide down
| h  hammer-on
| p  pull-off
| ~  vibrato
| +  harmonic
| x  Mute note
===============================================================================
Добавлено: 14.12.2015
Другие материалы по этой песне:
  • Аккорды и текст

Страница создана 14.12.2015
http://primanota.ru/enistonk/monster-of-love-chords.htm
Привет, Гость.
Предлагаем пройти революционный курс по гитаре.
Подарок от PrimaNota.Ru, забирай!