PrimaNota.ru - самый крупный в мире бесплатный архив песенных текстов, аккордов, табулатур и нот


Engine Three Seven - Easy Graceful Descent - таба, видео

Регистрация Запомнить меня
Войти через:  Facebook Google Twitter Vk Yandex Mail.ru

Engine Three Seven - Easy Graceful Descent - таба, видео

Печатать
Просмотров: 69
-------------------------------------------------------------------------------
Easy Graceful Descent
By Engine Three Seven
-------------------------------------------------------------------------------
Amazing Australian Band - Awesome Song! 

www.enginethreeseven.com


Guitar: Both Acoustic and Distorted Electric Guitar parts are tabbed. Sounds good 
playing all parts on Electric.

Tuning: Standard EADGBE

Intro
e|---------------------------------------------------------------------------|
B|---------------------------------------------------------------------------|
G|---------------------------------------------------------------------------|
D|---------------------------------------------------------------------------|
A|---------------------------------------------------------------------------|
E|--12p0-0--12p0-0--12p0-0--12p0-0--12p0-0-0---------------------------------|

e|---------------------------------------------------------------------------|
B|---------------------------------------------------------------------------|
G|---------------------------------------------------------------------------|
D|---------------------------------------------------------------------------|
A|---------------------------------------------------------------------------|
E|--12p0-0--12p0-0--12p0-0--12p0-0--13p0-0-0---------------------------------|

e|---------------------------------------------------------------------------|
B|---------------------------------------------------------------------------|
G|---------------------------------------------------------------------------|
D|---------------------------------------------------------------------------|
A|---------------------------------------------------------------------------|
E|--12p0-0--12p0-0--12p0-0--12p0-0--12p0-0-0---------------------------------|

e|---------------------------------------------------------------------------|
B|---------------------------------------------------------------------------|
G|---------------------------------------------------------------------------|
D|---------------------------------------------------------------------------|
A|---------------------------------------------------------------------------|
E|--12p0-0--12p0-0--12p0-13p0-13p0-15p0-13p0---------------------------------|

e|---------------------------------------------------------------------------|
B|---------------------------------------------------------------------------|
G|---------------------------------------------------------------------------|
D|-----------------------------------------------------2/3--2--0--2----------|
A|---------------------------------------------------------------------------|
E|--12p0-0--12p0-0--12p0-0--12p0-0--12p0-0-0---X3----------------------------|

e|---------------------------------------------------------------------------|
B|---------------------------------------------------------------------------|
G|---------------------------------------------------------------------------|
D|--2/3--2--0--2----2-----2/3--2--0--2/3--2--0--2----2-----------------------|
A|------------------2--------------------------------2-----------------------|
E|------------------0--------------------------------0-----------------------|

e|---------------------------------------------------------------------------|
B|---------------------------------------------------------------------------|
G|---------------------------------------------------------------------------|
D|--2/3--2--0----3-----2/3--2--0----2----2/3--2--0--2------------------------|
A|---------------3------------------2----------------------------------------|
E|---------------1------------------0----------------------------------------|

e|---------------------------------------------------------------------------|
B|---------------------------------------------------------------------------|
G|---------------------------------------------------------------------------|
D|--2-2---2-2---2-2---2-2---2---3-3-3-3---2-2---2-2---2-2---2-2--2---3-3-3-3-|
A|--2-2---2-2---2-2---2-2---2---3-3-3-3---2-2---2-2---2-2---2-2--2---3-3-3-3-|
E|--0-0---0-0---0-0---0-0---0---1-1-1-1---0-0---0-0---0-0---0-0--0---1-1-1-1-|

e|---------------------------------------------------------------------------|
B|---------------------------------------------------------------------------|
G|---------------------------------------------------------------------------|
D|--3-3---3-3---3-3---3-3---3---5-5-5-5---2-2---2-2---2-2---2-2---2----------|
A|--3-3---3-3---3-3---3-3---3---5-5-5-5---2-2---2-2---2-2---2-2---2----------|
E|--1-1---1-1---1-1---1-1---1---3-3-3-3---0-0---0-0---0-0---0-0---0----------|


Verse 1
e|--0-----1-----0------------------------------------------------------------|
B|--0-----1-----0------------------------------------------------------------|
G|--1-----2-----1------------------9/10-9--7-7/9---9/10-9--7--9/10-9--7-7/9--|
D|--2-----3-----2---2/3--2--0--2---------------------------------------------|
A|--2-----3-----2------------------7/8--7--5-5/7---7/8--7--5--7/8--7--5-5/7--|
E|--0-----1-----0------------------------------------------------------------|


e|---------------------------------------------------------------------------|
B|---------------------------------------------------------------------------|
G|--9/10-9--7--5----9/10-9--7--9/10-9--7-7/9---------------------------------|
D|----------------------------------------------2/3--2--0--2-----------------|
A|--7/8--7--5--3----7/8--7--5--7/8--7--5-5/7---------------------------------|
E|---------------------------------------------------------------------------|


Chorus
e|---------------------------------------------------------------------------|
B|---------------------------------------------------------------------------|
G|---------------------------------------------------------------------------|
D|--2-2---2-2---2-2---2-2---2---3-3-3-3---2-2---2-2---2-2---2-2--2---3-3-3-3-|
A|--2-2---2-2---2-2---2-2---2---3-3-3-3---2-2---2-2---2-2---2-2--2---3-3-3-3-|
E|--0-0---0-0---0-0---0-0---0---1-1-1-1---0-0---0-0---0-0---0-0--0---1-1-1-1-|

e|---------------------------------------------------------------------------|
B|---------------------------------------------------------------------------|
G|---------------------------------------------------------------------------|
D|--3-3---3-3---3-3---3-3---3---5-5-5-5---2-2---2-2---2-2---2-2---2----------|
A|--3-3---3-3---3-3---3-3---3---5-5-5-5---2-2---2-2---2-2---2-2---2----------|
E|--1-1---1-1---1-1---1-1---1---3-3-3-3---0-0---0-0---0-0---0-0---0----------|


Verse 2
e|--0-----1-----0------------------------------------------------------------|
B|--0-----1-----0------------------------------------------------------------|
G|--1-----2-----1------------------9/10-9--7-7/9---9/10-9--7--9/10-9--7-7/9--|
D|--2-----3-----2---2/3--2--0--2---------------------------------------------|
A|--2-----3-----2------------------7/8--7--5-5/7---7/8--7--5--7/8--7--5-5/7--|
E|--0-----1-----0------------------------------------------------------------|

e|---------------------------------------------------------------12--13------|
B|---------------------------------------------------------------12--13------|
G|--9/10-9--7--5----9/10-9--7--9/10-9--7-7/9---------------------------------|
D|--------------------------------------------2/3--2--0--2-------------------|
A|--7/8--7--5--3----7/8--7--5--7/8--7--5-5/7---------------------------------|
E|--------------------------------------------------------(Acoustic-off-beat)|


Chorus
e|---------------------------------------------------------------------------|
B|---------------------------------------------------------------------------|
G|---------------------------------------------------------------------------|
D|--2-2---2-2---2-2---2-2---2---3-3-3-3---2-2---2-2---2-2---2-2--2---3-3-3-3-|
A|--2-2---2-2---2-2---2-2---2---3-3-3-3---2-2---2-2---2-2---2-2--2---3-3-3-3-|
E|--0-0---0-0---0-0---0-0---0---1-1-1-1---0-0---0-0---0-0---0-0--0---1-1-1-1-|

e|---------------------------------------------------------------------------|
B|---------------------------------------------------------------------------|
G|---------------------------------------------------------------------------|
D|--3-3---3-3---3-3---3-3---3---5-5-5-5---2-2---2-2---2-2---2-2---2----------|
A|--3-3---3-3---3-3---3-3---3---5-5-5-5---2-2---2-2---2-2---2-2---2----------|
E|--1-1---1-1---1-1---1-1---1---3-3-3-3---0-0---0-0---0-0---0-0---0----------|


Bridge
e|---------------------------------------------------------------------------|
B|---------------------------------------------------------------------------|
G|---------------------------------------------------------------------------|
D|--9-9-9--7-9-7-9-7-9---9-9-9--7-9-7-9-7-9---10-10-10--9-10-9-10-9-10-------|
A|--7-7-7--5-7-5-7-5-7---7-7-7--5-7-5-7-5-7---8--8--8---7-8--7-8--7-8--------|
E|---------------------------------------------------------------------------|

e|---------------------------------------------------------------------------|
B|---------------------------------------------------------------------------|
G|---------------------------------------------------------------------------|
D|--9-9-9--7-9-7-9-7--7------9-10-10-10-10-10-10-10---9-10-10-10-10-10-10-10-|
A|--7-7-7--5-7-5-7-5--5------7/8--8--8--8--8--8--8----7/8--8--8--8--8--8--8--|
E|---------------------------------------------------------------------------|

e|---------------------------------------------------------------------------|
B|---------------------------------------------------------------------------|
G|---------------------------------------------------------------------------|
D|--9-10-10-10-10-10-10-10-----9-10-10-10-10-10-10-10------------------------|
A|--7/8--8--8--8--8--8--8------7/8--8--8--8--8--8--8-------------------------|
E|---------------------------------------------------------------------------|

e|---------------------------------------------------------------------------|
B|---------------------------------------------------------------------------|
G|---------------------------------------------------------------------------|
D|---------------------------------------------------------------------------|
A|-----5---5/7-----5---5/7---9-10-10-10-10-10-10-10---9-10-10-10-10-10-10-10-|
E|---0---0-------0---0-------7/8--8--8--8--8--8--8----7/8--8--8--8--8--8--8--|

e|---------------------------------------------------------------------------|
B|---------------------------------------------------------------------------|
G|---------------------------------------------------------------------------|
D|---9-10-10-10-10-10-10-10-----9-10-10-10-10-10-10-10-----------------------|
A|---7/8--8--8--8--8--8--8------7/8--8--8--8--8--8--8------------------------|
E|---------------------------------------------------------------------------|

e|---------------------------------------------------------------------------|
B|---------------------------------------------------------------------------|
G|---------------------------------------------------------------------------|
D|---------------------------------------------------------------------------|
A|-----5---5/7---X8----------------------------------------------------------|
E|---0---0-------------------------------------------------------------------|

e|---------------------------------------------------------------------------|
B|---------------------------------------------------------------------------|
G|---------------------------------------------------------------------------|
D|--2-2---------2-2---2-2---3-3--3-3---5-5-5-5---2-2--2-2--2-2---3-3--3-3----|
A|--2-2---------2-2---2-2---3-3--3-3---5-5-5-5---2-2--2-2--2-2---3-3--3-3----|
E|--0-0---12\0--0-0---0-0---1-1--1-1---3-3-3-3---0-0--0-0--0-0---1-1--1-1----|

e|---------------------------------------------------------------------------|
B|---------------------------------------------------------------------------|
G|---------------------------------------------------------------------------|
D|--3-3-5-5---2-2--2-2--2-2---3-3--3-3---5-5-5-5---2-2--2-2--2-2---3-3--3-3--|
A|--3-3-5-5---2-2--2-2--2-2---3-3--3-3---5-5-5-5---2-2--2-2--2-2---3-3--3-3--|
E|--1-1-3-3---0-0--0-0--0-0---1-1--1-1---3-3-3-3---0-0--0-0--0-0---1-1--1-1--|

e|---------------------------------------------------------------------------|
B|---------------------------------------------------------------------------|
G|---------------------------------------------------------------------------|
D|--3-3-5-5-----2-2---9-9-9-9----2-2---9-9-9-9----2-2------------------------|
A|--3-3-5-5-----2-2---7-7-7-7----2-2---7-7-7-7----2-2------------------------|
E|--1-1-3-3-----0-0--------------0-0--------------0-0------------------------|

e|---------------------------------------------------------------------------|
B|---------------------------------------------------------------------------|
G|---------------------------------------------------------------------------|
D|--2-2---2-2---2-2---2-2---2---3-3-3-3---2-2---2-2---2-2---2-2--2---3-3-3-3-|
A|--2-2---2-2---2-2---2-2---2---3-3-3-3---2-2---2-2---2-2---2-2--2---3-3-3-3-|
E|--0-0---0-0---0-0---0-0---0---1-1-1-1---0-0---0-0---0-0---0-0--0---1-1-1-1-|

e|---------------------------------------------------------------------------|
B|---------------------------------------------------------------------------|
G|---------------------------------------------------------------------------|
D|--3-3---3-3---3-3---3-3---3---5-5-5-5---2-2---2-2---2-2---2-2---2----------|
A|--3-3---3-3---3-3---3-3---3---5-5-5-5---2-2---2-2---2-2---2-2---2----------|
E|--1-1---1-1---1-1---1-1---1---3-3-3-3---0-0---0-0---0-0---0-0---0----------|

e|---------------------------------------------------------------------------|
B|---------------------------------------------------------------------------|
G|---------------------------------------------------------------------------|
D|--9-9-9--7-9-7-9-7-9---9-9-9--7-9-7-9-7-9---10-10-10--9-10-9-10-9-10-------|
A|--7-7-7--5-7-5-7-5-7---7-7-7--5-7-5-7-5-7---8--8--8---7-8--7-8--7-8--------|
E|---------------------------------------------------------------------------|

e|---------------------------------------------------------------------------|
B|---------------------------------------------------------------------------|
G|---------------------------------------------------------------------------|
D|--9-9-9--7-9-7-9-7--7------------------------------------------------------|
A|--7-7-7--5-7-5-7-5--5------------------------------------------------------|
E|---------------------------------------------------------------------------|


Outro
e|---------------------------------------------------------------------------|
B|---------------------------------------------------------------------------|
G|---------------------------------------------------------------------------|
D|---------------------------------------------------------------------------|
A|---------------------------------------------------------------------------|
E|---12p0-0--12p0-0--12p0-0--12p0-0--12p0-0-0----X4--------------------------|

e|---------------------------------------------------------------------------|
B|---------------------------------------------------------------------------|
G|---------------------------------------------------------------------------|
D|---------------------------------------------------------------------------|
A|---------------------------------------------------------------------------|
E|---12h13p0--12h13p0--12h13p0--12h13p0--12h13p0-0---X2----------------------|

e|---------------------------------------------------------------------------|
B|---------------------------------------------------------------------------|
G|---------------------------------------------------------------------------|
D|---------------------------------------------------------------------------|
A|---------------------------------------------------------------------------|
E|-14p0-0-14p0-0-15p0-0-15p0-0-16p0-0-16p0-0-17p0-0-17p0-0-18p0-0-18p0-0-19\-|



************************************

| /   slide up
| \   slide down
| h   hammer-on
| p   pull-off

************************************
Добавлено: 07.11.2013
Другие материалы по этой песне:
  • Аккорды и текст

Страница создана 07.11.2013
http://primanota.ru/engine-three-seven/easy-graceful-descent-chords.htm
Привет, Гость.
Предлагаем пройти революционный курс по гитаре.
Подарок от PrimaNota.Ru, забирай!