PrimaNota.ru - самый крупный в мире бесплатный архив песенных текстов, аккордов, табулатур и нот


Engerica - Trick Or Treat - таба, видео

Регистрация Запомнить меня
Войти через:  Facebook Google Twitter Vk Yandex Mail.ru

Engerica - Trick Or Treat - таба, видео

Печатать
Просмотров: 126
www.engerica.com
I saw them supporting wednesday 13 on his gravyard a go-go tour and they rocked!

Main Riff:
e|----------------------------------------------------------------------------------|
B|----------------------------------------------------------------------------------|
B|-----------7---------------------7-----9--------------5---------------------------|
D|-9-9-9--X--7--X--9--X--8-8-8--X--7--X--9----9-9-9--X--5--X--9--X--8-8-8--X--4-4-4-|
A|-9-9-9--X--5--X--9--X--8-8-8--X--5--X--7----9-9-9--X--7--X--9--X--8-8-8--X--4-4-4-|
E|-7-7-7--X-----X--7--X--6-6-6--X-----X-------7-7-7--X-----X--7--X--6-6-6--X--2-2-2-|

Riff 2:
e|--------|
B|--------|
G|--------|
D|-9------|
A|-9- x13 |
E|-7------|

Riff 3:
e|----------------------------------------|
B|----------------------------------------|
G|-4-4--/-7----4-4--/-3----4-4-4-4-4-4-4--|
D|-4-4--/-7----4-4--/-3----4-4-4-4-4-4-4--|
A|-2-2--/-5----2-2--/-1----2-2-2-2-2-2-2--|
E|----------------------------------------|

Riff 4a:                                    Riff 4b:
e|--------------------------------------|   e|----------------------------------|
B|--------------------------------------|   B|----------------------------------|
G|--------------------------------------|   G|----------------------------------|
D|-2-2-2-2-2--4--5-5-5-5-5--/-8-8-8-8---|   D|-9-9-/-8-/-9-9-/-8-/-9-9-/-8-/-9--|
A|-2-2-2-2-2--4--5-5-5-5-5--/-8-8-8-8---|   A|-9-9-/-8-/-9-9-/-8-/-9-9-/-8-/-9--|
E|-0-0-0-0-0--2--3-3-3-3-3--/-6-6-6-6---|   E|-7-7-/-6-/-7-7-/-6-/-7-7-/-6-/-7--|

Chorus:
e|------------------------------------------|----------------------------------------|
B|------------------------------------------|----------------------------------------|
G|-4-4-4-4----------------------------------|-4-4-4-4--------------------------------|
D|-4-4-4-4--2-2-2-2--4-4-4-4--5-5-5-5-- x3 -|-4-4-4-4--2-2-2-2--4-4-4-4--5-5-5-5--8--|
A|-2-2-2-2--2-2-2-2--4-4-4-4--5-5-5-5-------|-2-2-2-2--2-2-2-2--4-4-4-4--5-5-5-5--8--|
E|----------0-0-0-0--2-2-2-2--3-3-3-3-------|----------0-0-0-0--2-2-2-2--3-3-3-3--6--|

Riff 5:
e|----------------------------------|------------------------------------------------|
B|-7-7-7--6--7-7-7--6--7-/-10-- x4 -|------------------------------------------------|
G|----------------------------------|------------------------------------------------|
D|----------------------------------|-9-9-9-/-8-8-8-/-9-9-9-/-8-8-8-/-9-9-/-12-- x4 -|
A|----------------------------------|-9-9-9-/-8-8-8-/-9-9-9-/-8-8-8-/-9-9-/-12-------|
E|----------------------------------|-7-7-7-/-6-6-6-/-7-7-7-/-6-6-6-/-7-7-/-10-------|

Riff 6:
e|---------------------------------------------------------------|
B|-12--[x8]----11-[x4]----12------12-[x8]----14-[x4]----15---15--|
G|---------------------------------------------------------------|
D|---------------------------------------------------------------|
A|---------------------------------------------------------------|
E|---------------------------------------------------------------|




I think Dave plays it mostly on A D and G, so the main riff, for example, would be like this:

e|-----------------------------------------|
B|-----------------------------------------|
G|-4-4-4--X--7--X--4--X--3-3-3-3--X--7--9--|
D|-4-4-4--X--7--X--4--X--3-3-3-3--X--7--9--|
A|-2-2-2--X--5--X--2--X--1-1-1-1--X--5--7--|
E|-----------------------------------------|




***BTW, where it says 'X' it could actually be open***

ORDER:

Main Riff  x2
Riff 1     x2
Riff 3     x2
Main Riff  x1
Riff 1     x2
Main Riff  x1
Riff 4a    x1
Riff 4b    x1
Riff 4a    x1
Chorus     x1
Riff 1     x1
Riff 1     x1  (On bass)
Riff 1     x1
Main Riff  x1
Riff 4a    x1
Riff 4b    x1
Riff 4a    x1
Chorus     x1
Random Noise (high pitched, un-tabbable)
Riff 5     x1
Riff 6     x1
Chorus     x1
End on  688XXX


This tab sounds 99% to me.
Please send any comments/corrections to steventhe@123mail.org


------------------------------------------------------------------------------------------
Dave (guitarist of engerica) told me the real way to play it is that \"the verses
and main riff is just played as
octaves on the A and G string and on the last time of the 1st and 2nd chorus
it goes B5, E5, F#5 and then A5, Bb5 and then up to that verse riff again
apart from on the end of the 1st verse where it goes B5, E5 G5 and ends on
Bb5\"

YAY FOR engerica!
Добавлено: 18.07.2012
Другие материалы по этой песне:
  • Аккорды и текст

Страница создана 26.06.2012
http://primanota.ru/engerica/trick-or-treat-chords.htm
Привет, Гость.
Предлагаем пройти революционный курс по гитаре.
Подарок от PrimaNota.Ru, забирай!