PrimaNota.ru - самый крупный в мире бесплатный архив песенных текстов, аккордов, табулатур и нот


Engerica - Smell - таба, бас-таба, видео

Регистрация Запомнить меня
Войти через:  Facebook Google Twitter Vk Yandex Mail.ru

Engerica - Smell - таба, бас-таба, видео

Печатать
Просмотров: 156
Уроки эстрадного вокала в Санкт-Петербурге
ARTIST: Engerica
TITLE: The Smell
ALBUM: There Are No Happy Endings (new version)
TABBED BY: kryptonite22
TUNING: D A D G B e

This tab refers to the re-recorded version which most people will have heard. The older 
came out a year or two ago and is ever so slightly different. Even if that's the only 
you have/know, you'll be able to pick it up from this tab though I think, as the main
differences are in the production qualities, not the actual playing.

INTRO PART 1 (I can't work out whether those 5s and 7s sound better on or just left 
have a listen and see which you prefer)
e|------------------|
B|------------------|
G|--10-----13-------|
D|--10-7---13--7----|
A|--8--5---11--5----|
D|-----0-------0----|

INTRO PART 2
e|----------------------------------------|
B|----------------------------------------|
G|----------------------------------------|
D|--------------------6----------------6--|
A|--------5---8---5-------5---8---5-------|
D|--12/-00--00--00--00--00--00--00--000---|

INTRO PART 3
e|--------------------------|
B|--------------------------|
G|-----7----10----7----13---|
D|--00-x-00-x--00-x-00-x----|
A|--00-5-00-8--00-5-00-11---|
D|--00---00----00---00------|

And then a very slight variation on that
e|----------------------------------|
B|----------------------------------|
G|-----7----101010----7----131313---|
D|--00-x-00-x-x-x--00-x-00-x-x-x----|
A|--00-5-00-8-8-8--00-5-00-111111---|
D|--00---00--------00---00----------|

The verse is mostly just bass but at the end of every line, play this again
e|--------------------------|
B|--------------------------|
G|-----7----10----7----13---|
D|--00-x-00-x--00-x-00-x----|
A|--00-5-00-8--00-5-00-11---|
D|--00---00----00---00------|

Then the CHORUS
e|--------------------------|
B|--------------------------|
G|--------------------------|
D|--5-5/7-7/8-8/10/8-7-5----|
A|--5-5/7-7/8-8/10/8-7-5----|
D|--5-5/7-7/8-8/10/8-7-5----|

...which changes slightly to this on the second time around
e|-------------|
B|-------------|
G|-------------|
D|--5-5/7--0---|
A|--5-5/7--0---|
D|--5-5/7--0---|

Then play INTRO PART 3 for a bit

Then it's a verse with some lovely incomprehensible lyrics, so play the same as on the 
verse.

Then a chorus again, which is exactly the same as above, apart from it leads into this part
e|-------------------------------------------------------|
B|-------------------------------------------------------|
G|-------------------------------------------------------|
D|--5-5/7-7/8-8/10-11-12-00-12-00-12-0-12-00-12-00-12-0--|
A|--5-5/7-7/8-8/10-11-12-00-12-00-12-0-12-00-12-00-12-0--|
D|--5-5/7-7/8-8/10-11-12-00-12-00-12-0-12-00-12-00-12-0--|

e|-------------------------------------|
B|-------------------------------------|
G|--13----13----13---13----13----13----|
D|--12-00-12-00-12-0-12-00-12-00-12-0--|
A|--12-00-12-00-12-0-12-00-12-00-12-0--|
D|--12-00-12-00-12-0-12-00-12-00-12-0--|

Then the sort of bridge part
e|-----------------------|
B|-----------------------|
G|-----------------10-9--|
D|--77555---88-77--x--x--|
A|--55555---88-77--8--7--|
D|--55555---88-77--------|

e|--------------------------|
B|--------------------------|
G|--------------------------|
D|--88888---10101010-11--7--|
A|--88888---10101010-11--5--|
D|--88888---10101010-11--0--|

Then the CHORUS riff

Then to end
e|----------------------------|
B|----------------------------|
G|-----7----10/9/8---8--7-----|
D|--00-x-00-x--x-x---8--x-00--|
A|--00-5-00-8-/7/6---6--5-00--|
D|--00---00---------------00--|
Добавлено: 13.03.2012
Другие материалы по этой песне:

Страница создана 25.02.2012
http://primanota.ru/engerica/smell-chords.htm
Привет, Гость.
Предлагаем пройти революционный курс по гитаре.
Подарок от PrimaNota.Ru, забирай!