PrimaNota.ru - самый крупный в мире бесплатный архив песенных текстов, аккордов, табулатур и нот


Engerica - Now Or Never - таба, видео

Регистрация Запомнить меня
Войти через:  Facebook Google Twitter Vk Yandex Mail.ru

Engerica - Now Or Never - таба, видео

Печатать
Просмотров: 106
ARTIST: Engerica
TITLE: Now Or Never
ALBUM: Roadkill CDS
TABBED BY: kryptonite22
TUNING: Standard

Basically it's the same sort of riff all the way through, it's quite a short song as 
You can get hold of it on the Roadkill single from last year. Very easy to play indeed, but 
if you have the song playing as well so you can hear it.

This bit's the intro, use palm muting here.
e|------------------------------|
B|------------------------------|
G|------------------------------|
D|--799997710101010101010-------|
A|--799997710101010101010-------|
E|--57777558-8-8-8-8-8-8--------|

Then release the muting (and add distortion) and it changes slightly to
e|------------------------------|
B|------------------------------|
G|--9/11111111/9----------------|
D|--x/x-x-x-x-/x-1010101010/99--|
A|--7/9-9-9-9-/7-1010101010/99--|
E|---------------8-8-8-8-8-/77--|

Then take the disotrion away and play that second part during the verse

Then change it slightly again to this for the chorus
e|------------------------------|
B|------------------------------|
G|------------------------------|
D|--7/9999/7/1010101010---------|
A|--7/9999/7/1010101010---------|
E|--5/7777/5/8-8-8-8-8----------|

Then change back to the verse part again

Then the chorus

Then the "If I were you..." part
e|------------------------------|
B|------------------------------|
G|------------------------------|
D|--5555555555555555/444444444--|
A|--5555555555555555/444444444--|
E|--3333333333333333/222222222--|

Then the 'solo', keep strumming that last note particularly quickly (listen to the song 
you'll hear what I mean)
e|------------------------------|
B|------------------------------|
G|--7/9999/7/1414141414/12---16-|
D|--x/xxxx/x/x-x-x-x-x-/x----x--|
A|--5/7777/5/1212121212/10---14-|
E|------------------------------|

Then the chorus part

And then a series of
e|------------------------------|
B|------------------------------|
G|------------------------------|
D|--7/9999/7/10-----------------|
A|--7/9999/7/10-----------------|
E|--5/7777/5/8------------------|

Let the last note of that sequence ring out every time and then finally end with
e|------|
B|------|
G|------|
D|--9/--|
A|--9/--|
E|--7/--|
Добавлено: 18.05.2012
Другие материалы по этой песне:
  • Аккорды и текст

Страница создана 18.05.2012
http://primanota.ru/engerica/now-or-never-chords.htm
Привет, Гость.
Предлагаем пройти революционный курс по гитаре.
Подарок от PrimaNota.Ru, забирай!