PrimaNota.ru - самый крупный в мире бесплатный архив песенных текстов, аккордов, табулатур и нот


Engerica - My Demise - текст песни, таба, видео

Регистрация Запомнить меня
Войти через:  Facebook Google Twitter Vk Yandex Mail.ru

Engerica - My Demise - текст песни, таба, видео

Печатать
Просмотров: 119
Tabbed by sixwheeledbeast
Engerica - My Demise
Tuning: Drop D (DADGBE)

PM any questions/corrections thanks, rate please.

KEY
PM..  - palm mute
x     - muted string
[5]   - pinch harm
///.. - tremolo picking


#Intro (0:00)
e|-------------|---|
b|-------------|---|:
g|-------------|---|
D|-6-----------|-6-|
A|-6-----------|-6-|:
D|-6-----------|-6-|x14

e|-----------------|
b|-----------------|:
g|-----------------|
D|-0-0-0-0-0-6-6-6-|
A|-0-0-0-0-0-6-6-6-|:
D|-0-0-0-0-0-6-6-6-|x4

e|-------------|
b|--6----------|:
g|----7--------|
D|------6-7-6--|
A|-------------|:
D|-------------|x4

#Verse (0:19) 
e|-----------------|
b|-----------------|:
g|PM........-------|
D|-0-0-0-0-0-6-6-6-|
A|-0-0-0-0-0-6-6-6-|:
D|-0-0-0-0-0-6-6-6-|x8

#Chorus (0:30)
e|-10-10--8-8---10-10--8-8--10-10/11-|
b|-----------------------------------|
g|-----------------------------------|
D|-----------------------------------|
A|-----------------------------------|
D|-----------------------------------|

e|-10-10--8-8---10-10--8-8--10-10\8--|
b|-----------------------------------|
g|-----------------------------------|
D|-----------------------------------|
A|-----------------------------------|
D|-----------------------------------|

e|-8-8--6-6---8-8--6-6--8-8/9--|
b|-----------------------------|
g|-----------------------------|
D|-----------------------------|
A|-----------------------------|
D|-----------------------------|

e|-8-8--6-6---8-8--6-6--8-8----|
b|-----------------------------|
g|-----------------------------|
D|-----------------------------|
A|-----------------------------|
D|-----------------------------|

e|-8-8--6--------------|
b|---------------------|
g|---------------------|
D|--------3--3-1--1-0--|
A|--------3--3-1--1-0--|
D|--------3--3-1--1-0--|

(0:43)
e|-----------------|
b|-----------------|:
g|-----------------|
D|-0-0-0-0-0-6-6-6-|
A|-0-0-0-0-0-6-6-6-|:
D|-0-0-0-0-0-6-6-6-|x4

#Verse (0:49)

#Chorus (1:00)

#Break (1:17)
e|--------------------------------|
b|------------------9-------------|:
g|-7-7-7-7-7-7-7-7--x-------------|
D|-7-7-7-7-7-7-7-7--6-------------|
A|-5-5-5-5-5-5-5-5--///..........-|:
D|--------------------------------|x2

Solo Under Break Riff (1:22)
e|-10-12-13-12-10-12-13-|
b|----------------------|:
g|----------------------|
D|----------------------|
A|----------------------|:
D|----------------------|x2

#Refrain (1:29)
e|----------------------------|  |------|
b|----------------------------|: |------|
g|PM..........................|  |......|
D|-6--------3---------1-------|  |-0----|
A|-6--------3---------1-------|: |-0----|
D|-6-x8-----3-x8------1-x8----|x2|-0-x8-|
                                 (1st Time Only)
#Ending (1:39)
e|-----------------|
b|-----------------|:
g|-----------------|
D|-0-0-0-0-0-6-6-6-|
A|-0-0-0-0-0-6-6-6-|:
D|-0-0-0-0-0-6-6-6-|x4

e|-------------|
b|--6----------|:
g|----7--------|
D|------6-7-6--|
A|-------------|:
D|-------------|x4

(1:50)
e|------------------------|
b|-------------------9-9--|
g|-------------------x-x--|
D|-6--6-0--0-6--6-0--6-6--|
A|-6--6-0--0-6--6-0-------|
D|-6--6-0--0-6--6-0-------|

Добавлено: 20.06.2012
Другие материалы по этой песне:
  • Аккорды и текст

Страница создана 20.06.2012
http://primanota.ru/engerica/my-demise-chords.htm
Привет, Гость.
Предлагаем пройти революционный курс по гитаре.
Подарок от PrimaNota.Ru, забирай!