PrimaNota.ru - самый крупный в мире бесплатный архив песенных текстов, аккордов, табулатур и нот


Engerica - Misery Guts - таба, видео

Регистрация Запомнить меня
Войти через:  Facebook Google Twitter Vk Yandex Mail.ru

Engerica - Misery Guts - таба, видео

Печатать
Просмотров: 128
Engerica
There Are No Happy Endings
Track 7
Misery Guts

Tuning - DADGBE (low to high)

Author - Anthony Captain



Introduction
E|------------------------------------|
B|------------------------------------|
G|----------------------------(5)-----| Harmonic (Natural)
D|------------------------------------|
A|-pick scrapes//////-(7)-------------| Harmonic (Natural)
D|------------------------------------|


Main Riff/Chorus
E|---------------------------------|
B|---------------------------------|
G|---------------------------------|
D|---8-----7-----5-----------------|
A|-----5-----5-------8-----6-----6-|
D|-5-----5-----5-------8-8---8-8---|


Verse pt1
E|---------------------------------|
B|---------------------------------|
G|---------------------------------|
D|---8-----7-----5-----------------|
A|-----5-----5-------8-------6-----|
D|-5-----5-----5-------8-8-8---8-8-|


Variation During Verse (special crowd verses) pt2
E|---------------------------------|
B|---------------------------------|
G|---------------------------------|
D|---5-----5-----5-----------------|
A|-----5-----5-------8-------6-----|
D|-5-----5-----5-------8-8-8---8-8-|


Build Up
E|--------------------------------------|
B|--------------------------------------|
G|--------------7-7-7-8-8-8-10-10-10-12-|
D|-7/10/7-8-----------------------------|
A|-5/ 8/5-8-----5-5-5-6-6-6- 8- 8- 8-10-|
D|--------8-----------------------------|


Build Up 2 (After second verse and build Up)
E|-----------------------------------------------------------------|
B|-----------------------------------------------------------------|
G|-----------------------------------------------------------------|
D|-8-8-8-8-8-8-8-8-6-6-6-6-6-6-6-6-5-5-5-5-5-5-5-5-5-5-5-5-5-5-5-5-|
A|-8-8-8-8-8-8-8-8-6-6-6-6-6-6-6-6-5-5-5-5-5-5-5-5-5-5-5-5-5-5-5-5-|
D|-8-8-8-8-8-8-8-8-6-6-6-6-6-6-6-6-5-5-5-5-5-5-5-5-5-5-5-5-5-5-5-5-|


Last Part Of Build Up  
E|-----------------------------------------------------------------|
B|-----------------------------------------------------------------|
G|-----------------------------------------------------------------|
D|-8-8-8-8-8-8-8-8-6-6-6-6-6-6-6-6-5~~~~~~-------------------------|
A|-8-8-8-8-8-8-8-8-6-6-6-6-6-6-6-6-5~~~~~~-------------------------|
D|-8-8-8-8-8-8-8-8-6-6-6-6-6-6-6-6-5~~~~~~-------------------------|


Interlude Middle
E|-------------------------------------|
B|-------------------------------------|
G|---0-----0-----0----0----------------|
D|-------------------------------------|
A|-----8-----8----------10----10-8~--6-|
D|-8-----8-----8---10------10----------|

Or

E|---------------------------------|
B|---------------------------------|
G|-----0~------0~------0-----------|
D|---3-------3-------5-----5-3~--1-|
A|-1-------1-------3-----3---------|
D|---------------------------------|

E|---------------------------------|
B|---------------------------------|
G|-----0~------0~------0-----------|
D|---3-------3-------5-----5/8~--8-|
A|-1-------1-------3-----3---------|
D|---------------------------------|


Interlude 2
E|---------------------------------------|
B|---------------------------------------|
G|-----12-------12-------15---12-10---/8-|
D|---------------------------------------|
A|-0-0-10---0-0-10---0-0-13-0-10/ 8 --/6-|
D|-0-0------0-0------0-0----0------------|


Interlude 3
E|---------------------------------|
B|---------------------------------|
G|---------------------------------|
D|-5-5-5-5-5-5-5-5-5-5-5-5-5-5-5-5-|
A|-5-5-5-5-5-5-5-5-5-5-5-5-5-5-5-5-|
D|-5-5-5-5-5-5-5-5-5-5-5-5-5-5-5-5-|

E|------------------------------------------|
B|------------------------------------------|
G|-12-12-12-12-12-12-12-12-12-12-12---------|
D|------------------------------------7/9/7-|
A|-10-10-10-10-10-10-10-10-10-10-10-0-5/7/5-|
D|----------------------------------0-------|


Build Up 3
E|----------------------------------------|
B|----------------------------------------|
G|-------7-7-7-8-8-8-10-10-10-12-12-12-12-|
D|----------------------------------------|
A|-0-0-0-5-5-5-6-6-6- 8- 8- 8-10-10-10-10-|
D|-0-0-0----------------------------------|

E|----------------------------------------|
B|----------------------------------------|
G|-------7-7-7-8-8-8-10-10-10-12-15-15-15-|
D|----------------------------------------|
A|-5-5-5-5-5-5-6-6-6- 8- 8- 8-10-13-13-13-|
D|----------------------------------------|

E|-------------------------------------|
B|-------------------------------------|
G|-------7-7-7-8-8-8-10-10-10-12-8-8-7-|
D|-------------------------------------|
A|-0-0-0-5-5-5-6-6-6- 8- 8- 8-10-6-6-5-|
D|-0-0-0-------------------------------|

E|----------------------------------------|
B|----------------------------------------|
G|-7b~---7-7-7-8-8-8-10-10-10-12-12-17-17-|
D|----------------------------------------|
A|-5b~---5-5-5-6-6-6- 8- 8- 8-10-10-15-15-|
D|----------------------------------------|


Ending 1
E|---------------------------------|
B|---------------------------------|
G|---------------------------------|
D|-5-5-5-5-5-5-5-5-8-8-8-8-1-1-1-1-|
A|-5-5-5-5-5-5-5-5-8-8-8-8-1-1-1-1-|
D|-5-5-5-5-5-5-5-5-8-8-8-8-1-1-1-1-| x4


Ending 2
E|---------------------------------|
B|---------------------------------|
G|-------------------------2---2---|
D|-5-5-5-5-5-5-5-5-8-8-8-8-1---1---|
A|-5-5-5-5-5-5-5-5-8-8-8-8(1)-(1)--|   () NOT sure if played
D|-5-5-5-5-5-5-5-5-8-8-8-8(1)-(1)--| x1() NOT sure if played

E|---------------------------------|
B|---------------------------------|
G|---------------------------------|
D|-5-5-5-5-5-5-5-5-8-8-8-8-1-1-1-1-|
A|-5-5-5-5-5-5-5-5-8-8-8-8-1-1-1-1-|
D|-5-5-5-5-5-5-5-5-8-8-8-8-1-1-1-1-| x2

End Chords
E|-----------------|
B|-----------------|
G|-----------------|
D|-0-8-----0-5-----|
A|-0-8-----0-5-----|
D|-0-8-----0-5-----| X1
Добавлено: 13.06.2012
Другие материалы по этой песне:
  • Аккорды и текст

Страница создана 13.06.2012
http://primanota.ru/engerica/misery-guts-chords.htm
Привет, Гость.
Предлагаем пройти революционный курс по гитаре.
Подарок от PrimaNota.Ru, забирай!