PrimaNota.ru - самый крупный в мире бесплатный архив песенных текстов, аккордов, табулатур и нот


Engerica - Funeral Song - таба, видео

Регистрация Запомнить меня
Войти через:  Facebook Google Twitter Vk Yandex Mail.ru

Engerica - Funeral Song - таба, видео

Печатать
Просмотров: 97
Engerica
There Are No Happy Endings
Track 4
Funeral Song

Tuning - EADGBE (low to high)

Author - Anthony Captain



Introduction
E|-------------------|
B|-------------------|
G|----------9--------|
D|-7-7-10-7---7-10-7-|
A|-------------------|
E|-------------------|

E|-------------------|
B|-------------------|
G|----------9--------|
D|-7-7-10-7---7-10b--|
A|-------------------|
E|-------------------|

E|-------------------|
B|-------------------|
G|----------9--------|
D|-7-7-10-7---7-10-7-|
A|-------------------|
E|-5-5---------------|

E|-------------------|
B|-------------------|
G|----------9--------|
D|-7-7-10-7---7-10-7-|
A|-------------------|
E|-------------------|


Introduction 2
E|------------------|
B|------------------|
G|---------9--------|
D|-----------7-10-7-|
A|-6-6-x///---------|
E|-4-4--------------|

E|-------------------|
B|-------------------|
G|----------9--------|
D|-----10-7---7-10-7-|
A|-6-6---------------|
E|-4-4---------------|

E|-------------------|
B|-------------------|
G|----------9--------|
D|-7-7-10-7---7-10-7-|
A|-------------------|
E|-------------------|

E|-------------------|
B|-------------------|
G|----------9-10-9-5-|
D|-7-7-10-7----------|
A|-------------------|
E|-------------------|


Breakdown
E|---------------------------------|
B|---------------------------------|
G|---------------------------------|
D|-6-6-6-6-6-6-6-6-3-3-3-3-2-2-2-2-|
A|-6-6-6-6-6-6-6-6-3-3-3-3-2-2-2-2-|
E|-4-4-4-4-4-4-4-4-1-1-1-1-0-0-0-0-|

E|-------------------------------------|
B|-------------------------------------|
G|-----------------10-10-10-10-9-9-9-9-|
D|-6-6-6-6-6-6-6-6---------------------|
A|-6-6-6-6-6-6-6-6- 8- 8- 8- 8-7-7-7-7-|
E|-4-4-4-4-4-4-4-4---------------------|


Fill
E|---------------------------------|
B|---------------------------------|
G|---------------------------------|
D|---------------------------------|
A|-7-7-----7-7-----7-7-----7-7-----|
E|-5-5-----5-5-----5-5-----5-5-----|


Verse
E|------------------------------------|
B|------------------------------------|
G|------------------------------------|
D|-7-7-7-----------10-10-10-----------|
A|-7-7-7-----------10-10-10-----------|
E|-5-5-5----------- 8- 8- 8-----------|

E|---------------------------------|
B|---------------------------------|
G|---------------------------------|
D|-7-7-7-----------3---3---2---2---|
A|-7-7-7-----------3---3---2---2---|
E|-5-5-5-----------1---1---0---0---|

E|-------------------------------------|
B|-------------------------------------|
G|-----------------10----10----9---9---|
D|-6-6-6-----------10----10----9---9---|
A|-6-6-6----------- 8-----8----7---7---|
E|-4-4-4-------------------------------|


Chorus
E|---7-------7---7-------7---7-----|
B|-----6---6-------6---6-------6---|
G|-7-----7-----7-----7-----7-----7-|
D|---------------------------------|
A|---------------------------------|
E|---------------------------------|

E|---5-----5-----5-----5-----5-----|
B|-----5-----5-----5-----5-----5---|
G|-5-----5-----5-----5-----5-------|
D|---------------------------------|
A|---------------------------------|
E|---------------------------------|

E|-------------------------|
B|-------------------------|
G|-------------------------|
D|-10-10-10-10-10-10-10-10-|
A|- 8- 8- 8- 8- 8- 8- 8- 8-|
E|-------------------------|

E|---5-------5---5-------5---5-----|
B|-----5---5-------5---5-------5---|
G|-5-----5-----5-----5-----5-------|
D|---------------------------------|
A|---------------------------------|
E|---------------------------------|


Chorus2
E|---7-----7-----7-----7-----7-----|
B|-----6-----6-----6-----6-----6---|
G|-7-----7-----7-----7-----7-----7-|
D|---------------------------------|
A|---------------------------------|
E|---------------------------------|

E|---5-----5-----5-----5-----5-----|
B|-----5-----5-----5-----5-----5---|
G|-5-----5-----5-----5-----5-------|
D|---------------------------------|
A|---------------------------------|
E|---------------------------------|

E|-----------------------|
B|-----------------------|
G|-10-10-10-10-10-10-9-9-|
D|-10-10-10-10-10-10-9-9-|
A|- 8- 8- 8- 8- 8- 8-7-7-| (SLOWER TEMPO)
E|-----------------------|

E|-----------------|
B|-----------------|
G|-7-7-7-7-7-7-7-7-|
D|-7-7-7-7-7-7-7-7-|
A|-5-5-5-5-5-5-5-5-| (SLOWER TEMPO)
E|-----------------|

E|---------------------------------|
B|---------------------------------|
G|---------------------------------|
D|-6-6-6-6-6-6-6-6-6-6-6-6-6-6-6-6-|
A|-6-6-6-6-6-6-6-6-6-6-6-6-6-6-6-6-|
E|-4-4-4-4-4-4-4-4-4-4-4-4-4-4-4-4-|


Interlude
E|--------------------------------------------------------------------------------|
B|--------------------------------------------------------------------------------|
G|--------------------------------------------------------------------------------|
D|-7-7-7-7-7-7-7-7-7-9-9-9-9-9-9-9-9-10-10-10-10-10-10-10-10-10-13-13-13-13-13-13-|
A|-0-0-0-0-0-0-0-0-0-0-0-0-0-0-0-0-0- 0- 0- 0- 0- 0- 0- 0- 0- 0- 0- 0- 0- 0- 0- 0-|
E|--------------------------------------------------------------------------------|

E|-------------------------------------------------------------|
B|-------------------------------------------------------------|
G|-13-13-13-13-13-13-13-13-13-13-13-13-13-13-13-13-14~---------|
D|-------------------------------------------------------------|
A|-11-11-11-11-11-11-11-11-11-11-11-11-11-11-11-11-12~---------|
E|-------------------------------------------------------------|

Verse2 (light palm mute on these)
E|-6-6-----6-6-----6-6-----6-6-----|
B|-----5-5-----5-5-----5-5-----5-5-|
G|---------------------------------|
D|---------------------------------|
A|---------------------------------|
E|---------------------------------| x2

E|-5-5-----5-5-----5-5-----5-5-----|
B|-----5-5-----5-5-----5-5-----5-5-|
G|---------------------------------|
D|---------------------------------|
A|---------------------------------|
E|---------------------------------| x2

E|-----------------------------------------|
B|-----------------------------------------|
G|-----------------------------------------|
D|-7-7-7-7-10-10-10-10-7-7-7-7-10-10-10-10-|
A|-7-7-7-7-10-10-10-10-7-7-7-7-10-10-10-10-|
E|-5-5-5-5- 8- 8- 8- 8-5-5-5-5- 8- 8- 8- 8-|

E|---------------------------------|
B|---------------------------------|
G|---------------------------------|
D|-6-6-6-6-6-6-6-6-3-3-3-3-2-2-2-2-|
A|-6-6-6-6-6-6-6-6-3-3-3-3-2-2-2-2-|
E|-4-4-4-4-4-4-4-4-1-1-1-1-0-0-0-0-|

E|-------------------------------------|
B|-------------------------------------|
G|-----------------10-10-10-10-9-9-9-9-|
D|-6-6-6-6-6-6-6-6---------------------|
A|-6-6-6-6-6-6-6-6- 8- 8- 8- 8-7-7-7-7-|
E|-4-4-4-4-4-4-4-4---------------------|


Interlude
E|---------------------------------|
B|---------------------------------|
G|-----0~------0~------0~------0~--|
D|---7-------2-------3-------2-----|
A|---------------------------------|
E|-5-------0-------1-------0-------|


Interlude
Variation
E|---------------------------------|
B|---------------------------------|
G|-----0~------0~------0~----------|
D|---7-------2-------3-------------|
A|---------------------------------|
E|-5-------0-------1---------------|


Breakdown 2
E|---------------------------------|
B|---------------------------------|
G|---------------------------------|
D|-7-7-7-7-2-2-2-2-3-3-3-3-2-2-2-2-|
A|-7-7-7-7-2-2-2-2-3-3-3-3-2-2-2-2-|
E|-5-5-5-5-0-0-0-0-1-1-1-1-0-0-0-0-|

E|-----------------------------------------|
B|-----------------------------------------|
G|-14-14-14-14-9-9-9-9-10-10-10-10-9-9-9-9-|
D|-----------------------------------------|
A|-12-12-12-12-7-7-7-7- 8- 8- 8- 8-7-7-7-7-|
E|-----------------------------------------|

E|---------------------------------|
B|---------------------------------|
G|---------------------------------|
D|-7-------2-------3-------2-------|
A|-7-------2-------3-------2-------|
E|-5-------0-------1-------0-------|

E|---------------------------------|
B|---------------------------------|
G|---------------------------------|
D|-7---7---2---2---3---3---2---2---|
A|-7---7---2---2---3---3---2---2---|
E|-5---5---0---0---1---1---0---0---|

E|---------------------------------|
B|---------------------------------|
G|---------------------------------|
D|-7-7-7-7-2-2-2-2-3-3-3-3-2-2-2-2-|
A|-7-7-7-7-2-2-2-2-3-3-3-3-2-2-2-2-|
E|-5-5-5-5-0-0-0-0-1-1-1-1-0-0-0-0-|


Chorus
E|---7-----7-----7-----7-----7-----|
B|-----6-----6-----6-----6-----6---|
G|-7-----7-----7-----7-----7-----7-|
D|---------------------------------|
A|---------------------------------|
E|---------------------------------|

E|---5-----5-----5-----5-----5-----|
B|-----5-----5-----5-----5-----5---|
G|-5-----5-----5-----5-----5-------|
D|---------------------------------|
A|---------------------------------|
E|---------------------------------|

E|-------------------------|
B|-------------------------|
G|-10-10-10-10-10-10-10-10-|
D|-10-10-10-10-10-10-10-10-|
A|- 8- 8- 8- 8- 8- 8- 8- 8-| (SLOWER TEMPO)
E|-------------------------|

(TREMLO PICKED OCTAVES/REALLY FAST)
E|-------------------------|
B|-------------------------|
G|-12----14----15----18----|
D|-------------------------|
A|-10----12----13----16----|
E|-------------------------|

(TREMLO PICKED OCTAVES/REALLY FAST)
E|-------------------------|
B|-------------------------|
G|-12----14----15----19----|
D|-------------------------|
A|-10----12----13----17----|
E|-------------------------|


Chorus 2
E|---7-----7-----7-----7-----7-----|
B|-----6-----6-----6-----6-----6---|
G|-7-----7-----7-----7-----7-----7-|
D|---------------------------------|
A|---------------------------------|
E|---------------------------------|

E|---5-----5-----5-----5-----5-----|
B|-----5-----5-----5-----5-----5---|
G|-5-----5-----5-----5-----5-------|
D|---------------------------------|
A|---------------------------------|
E|---------------------------------|

E|-------------------------|
B|-------------------------|
G|-10-10-10-10-10-10-10-10-|
D|-10-10-10-10-10-10-10-10-|
A|- 8- 8- 8- 8- 8- 8- 8- 8-| (SLOWER TEMPO)
E|-------------------------|

E|---5-----5---------5-------5-----|
B|-----5-----5---5-----5-------5---|
G|-7-----7-----7---5-----5-4-------|
D|---------------------------------|
A|---------------------------------|
E|---------------------------------|


End Octaves
E|---------------------------------|
B|---------------------------------|
G|-7-7-7-7-7-7-7-7-5-5-5-5-4-4-4-4-|
D|---------------------------------|
A|-5-5-5-5-5-5-5-5-3-3-3-3-2-2-2-2-|
E|---------------------------------|


Ending Chords
E|-0~~-----0~~-----0~~-------------|
B|-2~~-----2~~-----2~~-------------|
G|-2~~-----2~~-----2~~-------------|
D|-2~~-----2~~-----2~~-------------|
A|---------------------------------|
E|---------------------------------|
Добавлено: 18.04.2012
Другие материалы по этой песне:
  • Аккорды и текст

Страница создана 18.04.2012
http://primanota.ru/engerica/funeral-song-chords.htm
Привет, Гость.
Предлагаем пройти революционный курс по гитаре.
Подарок от PrimaNota.Ru, забирай!