PrimaNota.ru - самый крупный в мире бесплатный архив песенных текстов, аккордов, табулатур и нот


Engerica - Did You Hear What Sylvia Said - таба, видео

Регистрация Запомнить меня
Войти через:  Facebook Google Twitter Vk Yandex Mail.ru

Engerica - Did You Hear What Sylvia Said - таба, видео

Печатать
Просмотров: 138
Уроки эстрадного вокала в Санкт-Петербурге
Did You Hear What Sylvia Said? - E N G E R I C A

NOTE: This tab is based on the version found on the sawmills demo,
      Although at the time of writing i don't if it will be any diffrent
      from the version that will appear on There Are No Happy Endings

Dropped d tuning
E---------------------------------------------------|
B---------------------------------------------------|
G---------------------------------------------------| Reapeat various times
D-6-5-555555--2-3-333333----------------------------|
A-6-5-555555--2-3-333333----------------------------|
D-6-5-555555--2-3-333333----------------------------|
      pmpmpm      pmpmpm


E------------------------------------------------------|
B------------------------------------------------------|
G---------------0--------------------------------------|
D-----8-----10----------8----10-7-8-5----8-----10-6-5--|
A----8----10-----x2----8---10--7-8--5---8----10---6-5--|
D---8---10------------8--10---7-8---5--8---10-----6-5--|
 IF YOU WALK IF YOU WALK....

Then its back to the intro Riff then

E----------------------------------------------------------------------|
B----------------------------------------------------------------------|
G---------------0------------------------------------------------------|
D-----8-----10----------8----10-7-8-5--888-101010-7777--8888-5555--555-|
A----8----10-----x2----8---10--7-8--5--888-101010-7777--8888-5555--555-|
D---8---10------------8--10---7-8---5--888-101010-7777--8888-5555--555-|


E--------------------------------------------------------------------|
B--------------------------------------------------------------------|
G--------------------------------------------------------------------|
D--555----121212--111111--8888-------88888888--77777777---5----------|
A--555----121212--111111--8888-x3----88888888--77777777---5----------|
D--555----121212--111111--8888-------88888888--77777777---5----------|

E------------------------------------------------------| dave picks A G
B------------------------------------------------------|   Chord Here not
G------------------------------------------------------|    really sure about
D------5-----5-----------------------------------------|  the individual notes
A-----5-5-5---5----------------------------------------|
D----5---5--5------------------------------------------|
 THERE IS A GIRL......

E----------------------------------------------------------|
B----------------------------------------------------------|
G----------------------------------------------------------|
D----55-----55-------55------------------------------------|
A----55-----55-------55------------------------------------|
D----55-----55-------55------------------------------------|
LIFE IS A LESSON...

E-----------------------------------------------------------|
B-----------------------------------------------------------|
G-----------------------------------------------------------|
D-----555---5555--------------------------------------------|
A-----555---5555--------------------------------------------|
D-----555---5555--------------------------------------------|
YOU ARE SHIT....

E------------------------------------------------------|
B------------------------------------------------------|
G------------------------------------------------------|
D--5555555555555555555---------------------------------|
A--5555555555555555555---------------------------------|
D--5555555555555555555---------------------------------|
 WHAT A DIRTY TRICK TO PLAY ON.......


E--------------------------------------------------------------|
B--------------------------------------------------------------|
G--------------------------------------------------------------|
D--555----121212--111111--8888-------88888888--77777777---5----|
A--555----121212--111111--8888-x3----88888888--77777777---5----|
D--555----121212--111111--8888-------88888888--77777777---5----|
THE SCIENCE....

E--------------------------------------------------------------------|
B--------------------------------------------------------------------|
G--------------------------------------------------------------------|
D--5--5--5--5--55----------------------------------------------------|
A--5--5--5--5--55----------------------------------------------------|
D--5--5--5--5--55----------------------------------------------------|
ALL HAIL QUEEN OF THE GUILTY


E------------------------------------------------|
B------------------------------------------------|
G------------------------------------------------|
D--5---7--8--11--------888888-77777-666----------|
A--5---7--8--11--x3----888888-77777-666----------| Repeat various
D--5---7--8--11--------888888-77777-666----------|  Times Till end Of song
Добавлено: 15.04.2012
Другие материалы по этой песне:
  • Аккорды и текст

Страница создана 04.04.2012
http://primanota.ru/engerica/did-you-hear-what-sylvia-said-chords.htm
Привет, Гость.
Предлагаем пройти революционный курс по гитаре.
Подарок от PrimaNota.Ru, забирай!