PrimaNota.ru - самый крупный в мире бесплатный архив песенных текстов, аккордов, табулатур и нот


Engerica - Detective Show - бас-таба, видео

Регистрация Запомнить меня
Войти через:  Facebook Google Twitter Vk Yandex Mail.ru

Engerica - Detective Show - бас-таба, видео

Печатать
Просмотров: 99
Уроки эстрадного вокала в Санкт-Петербурге
This is a tab of a great song from a great band.

intro/verse
G-------------------------------|
D-------------------------------|
A--------2-2---1-1-1-1-1-1-1-1--|
E-0-0-3-3---3-3-----------------|

chorus
G---------------------------------------|
D---------------------------------------|
A---------------------------22-11-22-11-|
E-00-33-0--00-33-0--00-33-0-------------|

before guitar solo
G-----------------------------|
D-----------------------------|
A--------0-0--0--3-3--3-3-3-3-|
E-2-2--2----------------------|

during guitar solo
G--------------------------------|
D--------------------------------|
A--------0-0-0-0-3-3-3-3-3-3-3-3-|
E-2-2-2-2------------------------|

STRUCTURE:
intro/verse x12
chorus x2
intro/verse x4
before guitar solo x2
during guitar solo x4
chorus x4
Добавлено: 11.04.2012
Другие материалы по этой песне:
  • Аккорды и текст

Страница создана 11.04.2012
http://primanota.ru/engerica/detective-show-chords.htm
Привет, Гость.
Предлагаем пройти революционный курс по гитаре.
Подарок от PrimaNota.Ru, забирай!