PrimaNota.ru - самый крупный в мире бесплатный архив песенных текстов, аккордов, табулатур и нот


Engenheiros Do Hawaii - Piano Bar - аккорды и текст, видео

Регистрация Запомнить меня
Войти через:  Facebook Google Twitter Vk Yandex Mail.ru

Engenheiros Do Hawaii - Piano Bar - аккорды и текст, видео

Печатать
Просмотров: 107
Piano Bar
Engenheiros Do Hawaii
(intro)  E  B  Ab  C#m  E  A  
 C#m  F#m  B7  E

(primeira parte)

   E       B       Ab
E|------------------------------------------|
B|-0---0---4---4----------------------------|
G|-1---1---4---4---6---5---5---5------------|
D|-2-2---2-4-4---4-6---6---6---6------------|
A|---------2-------6-6---6---6---6----------|
E|-0---------------4-------4----------------|

   C#m     E       A
E|------------------------------------------|
B|-5---5---0---0---2---2---2---2------------|
G|-6---6---1---1---2---2---2---2------------|
D|-6-6---6-2-2---2-2-2---2---2---2----------|
A|-4---------------0-------0----------------|
E|---------0--------------------------------|

   Abm     C#m     F#m     Bsus4(9) B
E|------------------------------------------|
B|-4---4---5---5---2---2--------------------|
G|-4---4---6---6---2---2---9-----8----------|
D|-6-6---6-6-6---6-4-4---4-11----9----------|
A|---------4--------------------------------|
E|-4---------------2-------7----------------|

ou

   Abm     C#m     F#m     Bsus4    B
E|------------------------------------------|
B|-4---4---5---5---2---2---5-----4----------|
G|-4---4---6---6---2---2---4-----4----------|
D|-6-6---6-6-6---6-4-4---4-4-----4----------|
A|---------4---------------2-----2----------|
E|-4---------------2------------------------|

(primeira parte)
E                 B                     Ab
   O que você me pede e eu não posso fazer
C#m               E                  A
   Assim você me perde,e eu perco você
            Abm           C#m
   Como um barco perde o rumo
            F#m              Bsus4(9) B   E
   Como uma árvore no outono      perde a cor

                   B                    Ab
   O que você não pode eu não vou te pedir
C#m          E                            A
   O que você não quer eu não quero insistir
    Abm             C#m
   Diga a verdade, doa a quem doer
        F#m          Bsus4(9)    B       E
   Doe sangue e me dê    seu telefone

                     B                Ab
   Todos os dias eu venho ao mesmo lugar
C#m               E                          A
   Às vezes fica longe, impossível de encontrar
          Abm               C#m              F#m 
B   E
   Mas, quando o bourbon é bom toda noite é noite  de luar

                    B                    Ab
   No táxi que me trouxe até aqui Wilie Nelson me dava razão
C#m                 E                   A
   As últimas do esporte, hora certa, crime, religião
     Abm        C#m          F#m           B         C#m
    Na verdade nada é uma palavra esperando tradução

(passagem instrumental 1 - 2x)   C#m   F#m7   Ab7

   C#m
E|------------------------------------------|
B|---------4---5--------4-5p4---------------|
G|-----6--------------6-------6-4-----------|
D|---6---6---6------6-----------------------|
A|-4--------------4-------------------------|
E|------------------------------------------|

   F#m7           Ab7
E|------------------------4-----------------|
B|-----2---4---5--------4-------------------|
G|-2------------------5---------------------|
D|---2---2---2------4-----------------------|
A|------------------------------------------|
E|-2--------------4-------------------------|

(segunda parte)
E              B            Ab
   Toda vez que  falta luz
C#m            E                A
   Toda vez que  algo nos falta
          Abm                 C#m
   O invisível nos salta aos olhos
       F#m           B         E
   Um salto no escuro  da piscina

              B              Ab
   O fogo ilumina muito por muito pouco tempo
C#m         E                                 A
   Em muito pouco tempo o fogo apaga tudo, e tudo um dia vira luz
         Abm           C#m
   Toda vez que falta luz
F#m       BC#m
   O invisível nos salta aos olhos

(terceira parte)
           F#m  Ab                   C#m
  Ontem à noite,   eu conheci uma guria
          F#m   Ab           C#m
  Já era tarde,   era quase dia
             F#m  Ab          C#m
  Era o princípio   num precipício
             F#m  Ab      C#m
  Era o meu corpo   que caía

           F#m  Ab                C#m
  Ontem à noite,   a noite tava fria
            F#m  Ab              C#m
  Tudo queimava,   mas nada aquecia
            F#m      Ab        C#m
  Ela apareceu, parecia tão sozinha
                   F#m         Ab     C#m
  Parecia que era minha aquela   solidão

(passagem instrumental 2 - 2x)  C#m7   Cm7(5+)   E/B   Bbm7(5-)

(quarta parte)
F#m                  Ab                   C#m
   Eu conheci uma guria que eu já conhecia
                   F#m        Ab              C#m
   De outros carnavais,   com outras fantasias
             F#m      Ab            C#m
   Ela apareceu, parecia tão sozinha
                    F#m          Ab  C#m
   Parecia que era minha aquela solidão...
Добавлено: 14.06.2012
Другие материалы по этой песне:

Страница создана 02.03.2012
http://primanota.ru/engenheiros-do-hawaii/piano-bar-chords.htm
Привет, Гость.
Предлагаем пройти революционный курс по гитаре.
Подарок от PrimaNota.Ru, забирай!