PrimaNota.ru - самый крупный в мире бесплатный архив песенных текстов, аккордов, табулатур и нот


Engel - The Hurricane Season - таба, видео

Регистрация Запомнить меня
Войти через:  Facebook Google Twitter Vk Yandex Mail.ru

Engel - The Hurricane Season - таба, видео

Печатать
Просмотров: 121
-----------------------------------------------------------------------------
                THE HURRICANE SEASON - Engel
-----------------------------------------------------------------------------
tabbed by:alexguge
Email:jeghoppader@hotmail.com

Tuning: drop Bb
 C------------------------------------------------------------------------------|
 G------------------------------------------------------------------------------|
Eb-----14-14-14--14-14--14-14--14-14-14----17-17-17-15\12--12--12-12--12-12-----|
Bb------------------------------------------------------------------------------|
 F-----12-12-12--12-12--12-12--12-12-12----15-15-15-15\10--10--10-10--10-10-----|
Bb------------------------------------------------------------------------------|
 guitar 1

 C------------------------------------------------------------------------------|
 G------------------------------------------------------------------------------|
Eb-12-12-12--14-14-14-14\10--10-10-10--10-10--10-10--10-10-10-10/12-12--12-12---|
Bb------------------------------------------------------------------------------|
 F-10-10-10--12-12-12-12\8---8--8--8---8--8---8--8---8--8--8--8/10--10--10-10---|
Bb------------------------------------------------------------------------------|
 guitar 1

 C------------------------------------------------------------------------------|
 G------------------------------------------------------------------------------|
Eb-12-12/15--15-15-15\14-14-14--------------------------------------------------|
Bb------------------------------------------------------------------------------|
 F-10-10/13--13-13-13\12-12-12--------------------------------------------------|
Bb------------------------------------------------------------------------------|
 guitar 1

 C------------------------------------------------------------------------------|
 G------------------------------------------------------------------------------|
Eb----17/19--19-19-19\----------------------------------------------------------|
Bb------------------------------------------------------------------------------|
 F----15/17--17-17-17\----------------------------------------------------------|
Bb------------------------------------------------------------------------------|
 guitar 2

 C------------------------------------------------------------------------------|
 G------------------------------------------------------------------------------|
Eb------7-7-7-7-7-7-7-7-7-7-7-7-7-7---------------------------------------------|
Bb------7-7-7-7-7-7-7-7-7-7-7-7-7-7-------2-2-2-2-2-2-2-2-2-2-2-2-2-2-----------|
 F------5-5-5-5-5-5-5-5-5-5-5-5-5-5-------3-3-3-3-3-3-3-3-3-3-3-3-3-3-----------|
Bb-0-0--0-0-0-0-0-0-0-0-0-0-0-0-0-0--0-0----------------------------------------|
 x x                               x x

 C------------------------------------------------------------------------------|
 G------------------------------------------------------------------------------|
Eb-----10-10-10-10-10-10-10-10-10-10-10-10-10-10------12-12-12-12-12-12-12/15---|
Bb-----10-10-10-10-10-10-10-10-10-10-10-10-10-10------12-12-12-12-12-12-12/15---|
 F-----8--8--8--8--8--8--8--8--8--8--8--8--8--8-------10-10-10-10-10-10-10/13---|
Bb-0-0-------------------------------------------0-0----------------------------|
 x x                                           x x

 C------------------------------------------------------------------------------|
 G------------------------------------------------------------------------------|
Eb-15-15-15\14--14-14-----------------------------------------------------------|
Bb-15-15-15\14--14-14-----------------------------------------------------------|
 F-13-13-13\12--12-12-----------------------------------------------------------|
Bb------------------------------------------------------------------------------|


 C------------------------------------------------------------------------------|
 G------------------------------------------------------------------------------|
Eb------------------------------------------------------------------------------|
Bb------------------------------------------------------------------------------|
 F------------------------------------------------------------------------------|
Bb-0-0-0-0---000-00-----000-00----000-00----------------------------------------|
  guitar 1 xxx xx     xxx xx    xxx xx

 C------------------------------------------------------------------------------|
 G------------------------------------------------------------------------------|
Eb---------------8-----7------------------------8-----7----------------------8--|
Bb-0-0-0-0-5-0-0---0-0---0-0-5-0-5-000-00-5-0-0---0-0---0-0-5^\--000-00-5-00----|
 F------------------------------------------------------------------------------|
Bb------------------------------------------------------------------------------|
 guitar 2x x x x x x x x x x x x xxx xx x x x x x x x x x      xxx xx x xx x

 C------------------------------------------------------------------------------|
 G------------------------------------------------------------------------------|
Eb-----7------------------------8-----7-----------------------------------------|
Bb-0-0--0-0-5-0-5-000-0-0-5-0-0---0-0---0-0-5^\---------------------------------|
 F------------------------------------------------------------------------------|
Bb------------------------------------------------------------------------------|
 xguitarx2 x  x xxx x x x x x x x x x x x

 C------------------------------------------------------------------------------|
 C------------------------------------------------------------------------------|
Eb------------------------------------------------------------------------------|
Bb---------------------------------------------------------------88-------------|
 F---------------------------------------------------------------55-------------|
Bb-0-0-0-0-1p0-0--8-0-0-7-0-0-0-0-0-0-0-0-0-1p0-0-8-0-0-7-0-0--4/55--0-0-0-0----|
 x x x x     x    x x   x x x x x x x x x     x   x x   x x        x x x x

 C------------------------------------------------------------------------------|
 G------------------------------------------------------------------------------|
Eb------------------------------------------------------------------------------|
Bb---------------------------------8-8-8----------------------------------------|
 F--------------------------------------------7-7-7-7\5-5-5---------------------|
Bb-1p0-0-8-0-0-7-0-0-0-0-0--5-5-5-------7-7-7-----------------------------------|
 guitar1 x x   x x x x x

 C------------------------------------------------------------------------------|
 G-----------------------------------------------------10/11--------------------|
Eb------------------------------------------------------------------------------|
Bb--------------------------------8-8-8-----------------7/11--------------------|
 F-------------------------------------------7-7-7-7\5--------------------------|
Bb-1p0-0-8-0-0-7-0-0-0-0-0-5-5-5-------7-7-7------------------------------------|
 guitar 2x x   x x x x x

 C------------------------------------------------------------------------------|
 G------------------------------------------------------------------------------|
Eb------------------------------------------------------------------------------|
Bb---------------------------12-0-------------------------------12-0------------|
 F--------------------------------12-13------------------------------13-12------|
Bb-0-0-0----0-0-0-0--0-12-13------------0-0-0--0-0-0-0--0-12-13-----------------|


 C------------------------------------------------------------------------------|
 G------------------------------------------------------------------------------|
Eb------------------------------------------------------------------------------|
Bb---------------------------12-0-----------------------------------------------|
 F--------------------------------12-13-----------------------------------------|
Bb-0-0-0----0-0-0-0--0-12-13------------0-0-0--0-0-0-0--0-5-7-12-0-5-7----------|


 C------------------------------------------------------------------------------|
 G------------------------------------------------------------------------------|
Eb------------------------------------------------------------------------------|
Bb-0--0-0---0---0--0-0---0-----0--0-0-----0-0-----------------------------------|
 F-0--0-0---0---0--0-0---0-----0--0-0-----0-0--------5---3/5--------------------|
Bb-0--0-0---0---0--0-0---0-1/8\0--0-0---5\0-0--0-5-8---8------------------------|
 guitar 1

 C------------------------------------------------------------------------------|
 G------------------------------------------------------------------------------|
Eb-9-9-9-9-9-9-9-9-9-9-9-9-9-10-10-10-10-12-12-12-10-10-10-9-9-9----------------|
Bb------------------------------------------------------------------------------|
 F-7-7-7-7-7-7-7-7-7-7-7-7-7-8--8--8--8--10-10-10-8--8--8--7-7-7----------------|
Bb------------------------------------------------------------------------------|
 guitar 2

 C------------------------------------------------------------------------------|
 G-9-9-9-9-9-9-9-9-9-9-9-9-9-10-10-10-10-12-12-12-10-10-10-10-5-5-5-------------|
Eb------------------------------------------------------------------------------|
Bb------------------------------------------------------------------------------|
 F-7-7-7-7-7-7-7-7-7-7-7-7-7-8--8--8--8--10-10-10-8--8--8--8--3-3-3-------------|
Bb------------------------------------------------------------------------------|
 guitar 3

 C------------------------------------------------------------------------------|
 G------------------------------------------------------------------------------|
Eb------------------------------------------------------------------------------|
Bb--7--5-----5-7-8-7-5-7---7--5---5h7-------------------------------------------|
 F------------------------------------------------------------------------------|
Bb------------------------------------------------------------------------------|
Добавлено: 15.07.2012
Другие материалы по этой песне:
  • Аккорды и текст

Страница создана 15.07.2012
http://primanota.ru/engel/the-hurricane-season-chords.htm
Привет, Гость.
Предлагаем пройти революционный курс по гитаре.
Подарок от PrimaNota.Ru, забирай!