PrimaNota.ru - самый крупный в мире бесплатный архив песенных текстов, аккордов, табулатур и нот


Engel - Kinkerstraat - таба, видео

Регистрация Запомнить меня
Войти через:  Facebook Google Twitter Vk Yandex Mail.ru

Engel - Kinkerstraat - таба, видео

Печатать
Просмотров: 147
Artiest/artist: Engel & Daniël
Nummer/number-track: 5. Kinkerstraat
Album: Woonboot Producties 2 , uit 2007
Stemming/tuning: Standaard (EADGBE)
Gepost door: Jeroen
Getabt door: Daniël ''Gitaar 1 De Rest..''
             Mijn gitaarleraar ''Gitaar 1 & 2 Intro''
             Jeroen ''Gitaar 2 [Intro] & Bass''

Gitaar 1
  Intro
E|---------------------------------|------------------  -------0---------|
B|---------------------------------|------------------  -----2---3---5---|
G|---------------------------------|------------------  ---0-------0---0-|
D|---------------------------------|------------------  -----------------|
A|---------------------------------|------------------  -0-------2---4---|
E|---------------------------------|------------------  -----------------|

  De Rest...
E|---1-----0-------------0-1-------------1-0h1p0-------------0-----------|
B|-----3-----3---3-----3-----0---0-----3---------1---------2-----3---5---|
G|-------2-----2-----3---------0-----2-------------0-----0---------0---0-|
D|-0-------------------------------0-----------------2-------------------|
A|---------3-------1-----------------------3-----------0---------2---4---|
E|-------------------------3---------------------------------------------|
   Dm      C       Bes     G7      Dm      C           A7        G   A7

eind met...
E|----1---|
B|---3----|
G|--2-----|
D|-0------|
A|--------|
E|--------|
   Dm
~~~~~~~~~~~~~~~~~~~~~~~~

Gitaar 2
  Intro
E|-----5-------5-------6---------6-|------5-------5--- ---5--3---1---0--|
B|---6---6---5---5---6---6---6-----|----6---6---5---5- --6--5---3---2---|
G|-7-------5-------7-------7---7---|-7--------5------- [7][5]-[3]-[2]---|
D|---------------------------------|------------------ -----------------|
A|---------------------------------|------------------ -----------------|
E|---------------------------------|------------------ -----------------|
* [ik weet niet zeker of die kloppen.]

  De Rest... (filled 4e keer in.. )
E|-1--------------1---------------1-------------------0------------------|
B|-3--------------3---------------3-------------------2------------------|
G|-2--------------3---------------2-------------------0------------------|
D|-0--------------3---------------0-------------------2------------------|
A|----------------1-----------------------------------0------------------|
E|-----------------------------------------------------------------------|
   Dm     (C)     Bes    (G7)     Dm     (C)          A7       (G) (A7)

eind met...
E|----1---|
B|---3----|
G|--2-----|
D|-0------|
A|--------|
E|--------|
   Dm
~~~~~~~~~~~~~~~~~~~~~~~~

Bass:
  Intro
G|---------------------------------|------------------  -----------------|
D|---------------------------------|------------------  -----------------|
A|---------------------------------|------------------  (0)-----(2)-(4)--|
E|---------------------------------|------------------  -----------------|

De Rest.

G|-----------------------------------------------------------------------|
D|--(slide)--------------------------------------------------------------|
A|-5------(3)------1---------------5-----------------------------2---4---|
E|-------------------------3---------------------------5-----------------|
   Dm      C       Bes     G7      Dm      C           A7        G   A7

eind met...
G|--------|
D|--------|
A|-5------|
E|--------|
   Dm

~~~~~~~~~~~~~~~~~~~~~~~~

Tekst:
Ik loop over de kinkerstraat
het is midden Maart, bijna lente
maar het weer voelt meer als de winter aan, damn it
ik zie me adem en neon reclames die samen met lantaars de straten verlichten 's avonds
ik tuur door wat ramen, zie mensen hangen
dansen, zingen, sjansen, hand in hand vol verlangen
ik loop langs ik kijk naar binnen bij een restaurant
(ik) sta geschrikt stil, want zie jou aan de rechterkant
alleen aan een 2 persoons tafel,
en nog steeds heel mooi beeldschoon en stralend
dat is lang geleden, de laatste tijd vroeg ik mij wel vaker af hoe het met je gaat 
de dag
ik heb je niet meer gesproken sinds de zomer
toen we hadden besloten dat het niet meer goed ging komen
en ik hoop zo dat het goed met je gaat
dat je doet wat je wilt want je hebt genoeg mee gemaakt in je leven en daar zit je 10 
van me vandaan
ik kan een praatje met je maken en leven en dan weer gaan, ohja
contact onderhouden was te moeilijk voor jou
daar had ik me bij neergelegd maar nu neem ik het voortouw
ik stap naar binnen, zie dat je lief op kijkt
je glunderd maar je blik richt zich niet op mij, nee
een jonge man schuift bij je aan en je lacht
je lijkt gelukkig je kijkt blij en ik wacht en ik denk 'what the fack doe ik hier, jou 
verstoren?'
alles wat ik wil voor je is gelukkig worden
dus hier blijven staan heeft ook geen zin, ik draai me om loop naar buiten de regen in

~~~~~~~~~~~~~~~~~~~~~~~~

voor vragen:
xbox-killer@hotmail.com
Добавлено: 26.02.2012
Вам также может быть интересно:
Другие материалы по этой песне:
  • Аккорды и текст

Страница создана 26.02.2012
http://primanota.ru/engel/kinkerstraat-chords.htm
Привет, Гость.
Предлагаем пройти революционный курс по гитаре.
Подарок от PrimaNota.Ru, забирай!