PrimaNota.ru - самый крупный в мире бесплатный архив песенных текстов, аккордов, табулатур и нот


Engel - In Splendour - таба, видео

Регистрация Запомнить меня
Войти через:  Facebook Google Twitter Vk Yandex Mail.ru

Engel - In Splendour - таба, видео

Печатать
Просмотров: 124
----------------------------------------------------------------------------
                          IN SPLENDOUR - Engel
----------------------------------------------------------------------------
http://www.engelpropaganda.com
http://www.youtube.com/watch?v=0LYDaEsSn7k

tabbed by:alexguge
Email:jeghoppader@hotmail.com

Tuning: drop Bb
 C------------------------------------------------------------------------------|
 G------------------------------------------------------------------------------|
Eb---7-7-7-7-7-7-7-10-10-10-10-6-6-6-6-6-7-7-7-7-7-7-7-6-6-6-6-3-3-3-3-3--------|
Bb------------------------------------------------------------------------------|
 F---5-5-5-5-5-5-5-8--8--8--8--4-4-4-4-4-5-5-5-5-5-5-5-4-4-4-4-1-1-1-1-1--------|
Bb------------------------------------------------------------------------------|
 intro

 C------------------3-----------------------------------------------------------|
 G-------------------------5-------------------2--------------------------------|
Eb----------------------------------------------------3-------------------------|
Bb------------------------------------------------------------------------------|
 F------------------------------------------------------------------------------|
Bb-2-3-5--0-------------------2-3-5--0------------------------------------------|


 C------------------------------------------------------------------------------|
 G------------------------------------------------------------------------------|
Eb------------------------------------------------------------------------------|
Bb------------------------------------------------------------------------------|
 F-----5-8-5---7-4-5---5-8-5----7-5----54---5-8-5----7-4-5---5-8-5--------------|
Bb--0--------0-------0-------7------6-----0-------0--------0--------------------|


 C------------------------------------------------------------------------------|
 G------------------------------------------------------------------------------|
Eb------------------------------------------------------------------------------|
Bb----------------7-------------------------------------------------------------|
 F-----5------------------------------------------------------------------------|
Bb-0h1---------4----------------------------------------------------------------|


 c------------------------------------------------------------------------------|
 G------------------------------------------------------------------------------|
Eb------------------------------------------------------------------------------|
Bb--------------3/6------------3/6-------------3/6--------6/1-------------------|
 F--------------3/6------------3/6-------------3/6--------6/1-------------------|
Bb-1-1-11-11-1--3/6--1-11-11-1-3/6-1-1-11-11---3/6-1-11-1-6/1-------------------|


 C------------------------------------------------------------------------------|
 G------------------------------------------------------------------------------|
Eb------------------------------------------------------------------------------|
Bb-7-7-7-7-7-7-7-7-9-9-9-9-9-9-9-9-1010101010101010-6/7--7-7--8\7--7-7--6/7-----|
 F-7-7-7-7-7-7-7-7-7-7-7-7-7-7-7-7-7-7-7-7-7-7-7-7--6/7--7-7--8\7--7-7--6/7-----|
Bb-7-7-7-7-7-7-7-7-7-7-7-7-7-7-7-7-7-7-7-7-7-7-7-7--6/7--7-7--8\7--7-7--6/7-----|


 C------------------------------------------------------------------------------|
 G------------------------------------------------------------------------------|
Eb------------------------------------------------------------------------------|
Bb--7-7-7-7-7-7-9-9-9-9-9-9-9-9--3-3-3-3-3-3-3-3-0-0-0-0-0-0-0-0----------------|
 F--7-7-7-7-7-7-7-7-7-7-7-7-7-7--3-3-3-3-3-3-3-3-0-0-0-0-0-0-0-0----------------|
Bb--7-7-7-7-7-7-7-7-7-7-7-7-7-7--3-3-3-3-3-3-3-3-0-0-0-0-0-0-0-0----------------|


 C------------------------------------------------------------------------------|
 G------------------------------------------------------------------------------|
Eb------------------------------------------------------------------------------|
Bb------------------------------------------------------------------------------|
 F------------------------------------------------------------------------------|
Bb-0---------------------------------0------------------------------------------|


 C------------------------------------------------------------------------------|
 G------------------------------------------------------------------------------|
Eb--------7-7-7--------12-12-12-12/15--15\14-------7-7-7-------9-9-9--9\6--6-6--|
Bb------------------------------------------------------------------------------|
 F--------5-5-5--------10-10-10-10/13--13\12-------5-5-5-------7-7-7--7\4--4-4--|
Bb-0-0-0--------0-0-0------------------------0-0-0-------0-0-0------------------|
Добавлено: 19.04.2012
Другие материалы по этой песне:

Страница создана 19.04.2012
http://primanota.ru/engel/in-splendour-chords.htm
Привет, Гость.
Предлагаем пройти революционный курс по гитаре.
Подарок от PrimaNota.Ru, забирай!