PrimaNota.ru - самый крупный в мире бесплатный архив песенных текстов, аккордов, табулатур и нот


Enercia - Change - таба, видео

Регистрация Запомнить меня
Войти через:  Facebook Google Twitter Vk Yandex Mail.ru

Enercia - Change - таба, видео

Печатать
Просмотров: 134
Уроки эстрадного вокала в Санкт-Петербурге
Tuning is : CGCFAD

Hey everyone,
Just done a very simple tab version of this.

Intro
   +
D-------------------------------------------------------------------|
A--7----------------------------------------------------------------|
F--7------------------------------------------------9---11--12------|
C-----0----5--------5-----8-----0--3---0--3----0--------------------|
G-----0----3--------5-----8-----0--3---0--3----0----7---9---10------|
C-----0-------------5-----8-----0--3---0--3----0----0---0---0-------|

D----------------------------------------------------------------------|
A----------------------------------------------------------------------|
F------------------------------5---------------------------------------|
C-----10----5-----8----10----------------------------------------------|
G-----10----5-----8----10------3---------------------------------------|
C-----10----5-----8----10------2---------------------------------------|



Verse

X2
D---------------------------------------------------------------------------|
A------------------------------------------------------12b------------------|
F---7-------------------7------------------7------------------------5-------|
C---7----0--x-x--x------7--0---x--x--x-----7----0---x--10b--8-- 3-------7---|
G---5----0--x-x--x------5--0---x--x--x-----5----0---x-------8---3---3---7---|
C--------0--x-x--x---------0---x--x--x----------0---x-------8---3---2---7---|



D---------------------------------------------------------------------------|
A---------------------------------------------------------------------------|
F---------------------------------------------------------------------------|
C---------------------------------------------------------------------------|
G---------------------------------------------------------------------------|
C---55555555555555555--8888888888888888--12121212121212121212121212121212---|


Pre Chorus

x2
D---------------------------------------------------------------------------|
A---------------------------------------------------------------------------|
F---------------------------------------------------------------------------|
C---------------------------------------------------------------------------|
G---------------------------------------------------------------------------|
C-10101010101010101010101010101010------------------------------------------|

D---------------------------------------------------------------------------|
A---------------------------------------------------------------------------|
F---------------------------------------------------------------------------|
C---------------------------------------------------------------------------|
G---------------------------------------------------------------------------|
C---55555555555555555--8888888888888888--12121212121212121212121212121212---|


D---------------------------------------------------------------------------|
A---------------------------------------------------------------------------|
F---------------------------------------------------------------------------|
C------------------15151515151515(14b)--------------------------------------|
G---------------------------------------------------------------------------|
C-1010101010101010n10101010101010(10)---------------------------------------|

x2
Chorus
D--------------------------------------------------------------------------|
A--------------------------------------------------------------------------|
F---------------12-11----12-11---17----------------------------------------|
C---8------5---------------------------------------------------------------|
G---8------5----10-9-----10-9----15----------------------------------------|
C---8------5----0--0-----0--0----0-----------------------------------------|


Bridge

x2
D-------------------------------------------------------------------------|
A-------------------------------------------------------------------------|
F---14--12------15---14---12----------------------------------------------|
C-------------------------------------3333---8888-----7\0---3333-8888-----|
G---12--10------13---12---10----------3333---8888-----7\0---3333-8888-----|
C---0---0-------0----0----0-----------3333---8888-----7\0---3333-8888-----|



x2
Chorus
D--------------------------------------------------------------------------|
A--------------------------------------------------------------------------|
F----------------------------------------------------------5---------------|
C-----7\0------3333---8888-----7\0---3333-8888--7\0--8--3-----7------------|
G-----7\0------3333---8888-----7\0---3333-8888--7\0--8--3--3--7------------|
C-----7\0------3333---8888-----7\0---3333-8888--7\0--8--3--2--7------------|


Chorus
D--------------------------------------------------------------------------|
A--------------------------------------------------------------------------|
F---------------12-11----12-11---17----------------------------------------|
C---8------5---------------------------------------------------------------|
G---8------5----10-9-----10-9----15----------------------------------------|
C---8------5----0--0-----0--0----0-----------------------------------------|

x2
Chorus
D----------------------------------------------------------------------------|
A----------------------------------------------------------------------------|
F----------------------------------------------------------------------------|
C---8-----5-------00--00---00--00--00--00--00-00---10---8-5--8-5--8-5-8-5----|
G---8-----5-------00--00---00--00--00--00--00-00---10---8-5--8-5--8-5-8-5----|
C---8-----5-------00--00---00--00--00--00--00-00---10---8-5--8-5--8-5-8-5----|

Tabbed By Simple Mind


| /   slide up
| \   slide down
| h   hammer-on
| p   pull-off
| ~   vibrato
| +   harmonic
| x   Mute note
| b   Bend
| pb  Pre-bend
| br  Bend release
| pbr Pre-bend release
| brb Bend release bend
Добавлено: 03.07.2012
Другие материалы по этой песне:
  • Аккорды и текст

Страница создана 03.07.2012
http://primanota.ru/enercia/change-chords.htm
Привет, Гость.
Предлагаем пройти революционный курс по гитаре.
Подарок от PrimaNota.Ru, забирай!