PrimaNota.ru - самый крупный в мире бесплатный архив песенных текстов, аккордов, табулатур и нот


Enemy You - The Promise Breakers - таба, видео

Регистрация Запомнить меня
Войти через:  Facebook Google Twitter Vk Yandex Mail.ru

Enemy You - The Promise Breakers - таба, видео

Печатать
Просмотров: 50
-------------------------------------------------------------------------------
                  The Promise Breakers - Enemy You
-------------------------------------------------------------------------------
Tabbed by: spicygaysammi
E-mail:

Tuning: Standard

Verse: 

e|---------------------------------------------------------------------------|
B|---------------------------------------------------------------------------|
G|-------------------4-------6-----------------------------------------------|
D|---6---6-------0---4-------6---0---6---6-------0---4-------4---0-----------|
A|---6---6-------0---2-------4---0---6---6-------0---4-------4---0-----------|
E|---4---4-------0---------------0---4---4-------0---2-------2---0-----------|

(x5)

e|---------------------------------------------------------------------------|
B|---------------------------------------------------------------------------|
G|-------------------4---4---------------------------------------------------|
D|---6---6-------0---4---4-------0---2---2-------0---4---4-------------------|
A|---6---6-------0---2---2-------0---2---2-------0---4---4-------------------|
E|---4---4-------0---------------0---0---0-------0---2---2-------------------|

e|---------------------------------------------------------------------------|
B|---------------------------------------------------------------------------|
G|-------------------4-------6-----------------------------------------------|
D|---6---6-------0---4-------6---0---6---6-------0---4-------4---0-----------|
A|---6---6-------0---2-------4---0---6---6-------0---4-------4---0-----------|
E|---4---4-------0---------------0---4---4-------0---2-------2---0-----------|

e|---------------------------------------------------------------------------|
B|---------------------------------------------------------------------------|
G|---------------------------------------------------------------------------|
D|---6---6-------6---2---2-------2---6---6-------6---4---4-------4-----------|
A|---6---6-------6---2---2-------2---6---6-------6---4---4-------4-----------|
E|---4---4-------4---0---0-------0---4---4-------4---2---2-------2-----------|

Chorus: 

e|---------------------------------------------------------------------------|
B|---------------------------------------------------------------------------|
G|---9---9---9---9---9---9---9---0---8---8---8---8---8---8---8---0-----------|
D|---9---9---9---9---9---9---9---0---8---8---8---8---8---8---8---0-----------|
A|---7---7---7---7---7---7---7---0---6---6---6---6---6---6---6---0-----------|
E|---------------------------------------------------------------------------|

e|---------------------------------------------------------------------------|
B|---------------------------------------------------------------------------|
G|-------------------4-------6-----------------------------------------------|
D|---6---6-------0---4-------6---0---6---6-------0---4-------4---0-----------|
A|---6---6-------0---2-------4---0---6---6-------0---4-------4---0-----------|
E|---4---4-------0---------------0---4---4-------0---2-------2---0-----------|

(x2)

************************************

| /   slide up
| \   slide down
| h   hammer-on
| p   pull-off
| ~   vibrato
| +   harmonic
| x   Mute note
| b   Bend
| pb  Pre-bend
| br  Bend release
| pbr Pre-bend release
| brb Bend release bend

************************************
Добавлено: 11.12.2015
Другие материалы по этой песне:
  • Аккорды и текст

Страница создана 11.12.2015
http://primanota.ru/enemy-you/promise-breakers-chords.htm
Привет, Гость.
Предлагаем пройти революционный курс по гитаре.
Подарок от PrimaNota.Ru, забирай!