PrimaNota.ru - самый крупный в мире бесплатный архив песенных текстов, аккордов, табулатур и нот


Endwell - Zombies Never Think Twice - таба, видео

Регистрация Запомнить меня
Войти через:  Facebook Google Twitter Vk Yandex Mail.ru

Endwell - Zombies Never Think Twice - таба, видео

Печатать
Просмотров: 155
Уроки эстрадного вокала в Санкт-Петербурге
Eb :| ----------------|-----------------------|----------------------|
Bb :| ----------------|-----------------------|----------------------|
Gb :|*----------------|-----------------------|----------------------|
Db :|*3--3--7-5--5--7-|0-0-0-0*-0-0-0-0*-0-0*-|0-0-0-0*-0-0-0-0*-0*--|
Ab :| 1--3--5-3--5--7-|0-0-0-0*-0-0-0-0*-0-0*-|0-0-0-0*-0-0-0-0*-0*--|
Db :| ---3--*----5--7-|0-0-0-0*-0-0-0-0*-0-0*-|0-0-0-0*-0-0-0-0*-0*--|

Eb :----------------------- 1|----------------|----------------|
Bb :----------------------- ||----------------|----------------|
Gb :-----------------------*||----------------|----------------|
Db :0-0-0-0*-0-0-0-0*-0-0*-*||3--3--7-5--5--7-|3---------------|
Ab :0-0-0-0*-0-0-0-0*-0-0*- ||1--3--5-3--5--7-|1---------------|
Db :0-0-0-0*-0-0-0-0*-0-0*- ||---3--*----5--7-|*---------------|

Eb :----------------|----------------|| ----------------------|
Bb :----------------|----------------|| ----------------------|
Gb :----------------|----------------||*----------------------|
Db :7---5-----------|----------------||*0-0-0-0*-0-0-0-0*-----|
Ab :5---3-----------|----------------|| 0-0-0-0*-0-0-0-0*-----|
Db :----------------|----------------|| 0-0-0-0*-0-0-0-0*-----|

Eb :----------------|----------------------|---------------- 1|
Bb :----------------|----------------------|---------------- ||
Gb :----------------|----------------------|----------------*||
Db :--0*-0*-0*------|0-0-0-0*-0-0-0-0*-0*--|3--3--7-5--5--7-*||
Ab :--0*-0*-0*------|0-0-0-0*-0-0-0-0*-0*--|1--3--5-3--5--7- ||
Db :--0*-0*-0*------|0-0-0-0*-0-0-0-0*-0*--|---3--*----5--7- ||

Eb :----------------|----------------|----------------|| ----------------|
Bb :----------------|----------------|----------------|| ----------------|
Gb :----------------|----------------|----------------||*----------------|
Db :0---------------|----------------|----------------||*0--0*-7--7*-5--5|
Ab :0---------------|----------------|----------------|| 0--0*-7--7*-5--5|
Db :0---------------|----------------|----------------|| 0--0*-7--7*-5--5|

Eb :----------------|------------------ 1|----------------|
Bb :----------------|------------------ ||----------------|
Gb :----------------|------------------*||----------------|
Db :*-3--3*-2--2*-8-|-8*-7--7*-10--10*-*||8---------------|
Ab :*-3--3*-2--2*-8-|-8*-7--7*-10--10*- ||8---------------|
Db :*-3--3*-2--2*-8-|-8*-7--7*-10--10*- ||8---------------|

www.endwellrock.com       www.myspace.com/endwell
Добавлено: 01.06.2012
Другие материалы по этой песне:
  • Аккорды и текст

Страница создана 01.06.2012
http://primanota.ru/endwell/zombies-never-think-twice-chords.htm
Привет, Гость.
Предлагаем пройти революционный курс по гитаре.
Подарок от PrimaNota.Ru, забирай!