PrimaNota.ru - самый крупный в мире бесплатный архив песенных текстов, аккордов, табулатур и нот


Endwell - Single And Loving It - таба, видео

Регистрация Запомнить меня
Войти через:  Facebook Google Twitter Vk Yandex Mail.ru

Endwell - Single And Loving It - таба, видео

Печатать
Просмотров: 191
Уроки эстрадного вокала в Санкт-Петербурге
Intro
D--------------------------|
A--------------------------|
F---6-----3333-----6666/8--|
C-3-6-6~--3333--6- 6666/8--|
G-3-4-6~--1111--6- 4444/6--|
C-3---6~-------- 6---------|

D-------------------|
A-------------------|
F 6-5----------5----|
C---6-3----3-6-6----|
G-------4/6-----6---|
C-------------------|

D--------------------|
A--------------------|
F---3333-----6666/8--|
C---3333--6- 6666/8--|
G---1111--6- 4444/6--|
C--------- 6---------|

D--------------------|
A--------------------|
F 6-5----------5-8---|
C---6-3----3-6----6--|
G-------4/6----------|
C--------------------|

Verse
D-----------------------------------------------------|
A-----------------------------------------------------|
F--------  6--------  8--------  10/13 13 13 13 13/15-|
C-44 4444-6-66 6666-8-88 8888-10/13 13 13 13 13/15----|
G-44 4444-4-66 6666-6-88 8888-8/ 11 11 11 11 11/13----|
C-44 4444---66 6666---88 8888-------------------------|
        *****            *****           *****

D--------------------------|
A--------------------------|
F-----------------    3~~~-|
C 44 4444 431 1111 1 3~~~
G 44 4444 431 1111 1 1~~~
C 44 4444 431 1111 1-----
        *****        *****

D-----------------------------------------------------|
A-----------------------------------------------------|
F--------  6--------  8--------  10/13 13 13 13 13/15-|
C-44 4444-6-66 6666-8-88 8888-10/13 13 13 13 13/15----|
G-44 4444-4-66 6666-6-88 8888-8/ 11 11 11 11 11/13----|
C-44 4444---66 6666---88 8888-------------------------|


D----------------------------------------|
A----------------------------------------|
F-----------------    3~~~----------6----|
C 44 4444 431 1111 1 3~~~4~~~6~~~3 6  6
G 44 4444 431 1111 1 1~~~4~~~6~~~3 4  6
C 44 4444 431 1111 1-----4~~~6~~~3---6

Chorus
D-----------------------------------|
A-----------------------------------|
F 33333------- 66666----------------|
C 33333-33333-66666 4444  4  4444  4
G 11111-33333-44444 4444  4  4444  4
C-------33333-------4444  4  4444  4
                                      *****      *****
D----------------------------------|
A----------------------------------|
F-33333----------------------------|
C-33333-66666-44444-4--------------|
G-11111-66666-44444-4--------------|
C------- 66666-44444-4 431---------|
Добавлено: 01.04.2012
Другие материалы по этой песне:

Страница создана 01.04.2012
http://primanota.ru/endwell/single-and-loving-it-chords.htm
Привет, Гость.
Предлагаем пройти революционный курс по гитаре.
Подарок от PrimaNota.Ru, забирай!