PrimaNota.ru - самый крупный в мире бесплатный архив песенных текстов, аккордов, табулатур и нот


Endstille - Endstilles Reich - таба, видео

Регистрация Запомнить меня
Войти через:  Facebook Google Twitter Vk Yandex Mail.ru

Endstille - Endstilles Reich - таба, видео

Печатать
Просмотров: 62
BAND : Endstille
ALBUM : Endstilles Reich
SONG : Endstilles Reich

Tabbed by : Cody Baresich
Email : codybaresich@hotmail.com

D Standard Tuning

 4/4
  Gtr I
|-------------------------------|
|-18-18-18-18-13-13-13-13-13----|
|-14-15-17-----9-10-14-12--9----|
|----------17-------------------|
|-------------------------------|
|-------------------------------|


|----------------------------|
|----------------------------|
|----------------------------|
|-15-15-15-15-15-15-15-15----|
|-12-13-15----12-13-15-15----|
|----------15----------------|


|------------------------|
|------------------------|
|---5---0-----0----------|
|-------5---3-3----------|
|-3-3-2-2-0-0-0-0-2-3----|
|-5-5-0-0-1-1-1-1-0-0----|


|--------------------|
|--------------------|
|--------------------|
|-4-4-4-4-3-3-5-8----|
|-4-4-4-4-5-5-5-5----|
|-2-2-2-2------------|
Добавлено: 26.12.2015
Другие материалы по этой песне:
  • Аккорды и текст

Страница создана 26.12.2015
http://primanota.ru/endstille/endstilles-reich-chords.htm
Привет, Гость.
Предлагаем пройти революционный курс по гитаре.
Подарок от PrimaNota.Ru, забирай!