PrimaNota.ru - самый крупный в мире бесплатный архив песенных текстов, аккордов, табулатур и нот


Endstille - Bastard - таба, видео

Регистрация Запомнить меня
Войти через:  Facebook Google Twitter Vk Yandex Mail.ru

Endstille - Bastard - таба, видео

Печатать
Просмотров: 83
|-------------------------------------------------------------------|
|-------------------------------------------------------------------|
|-------------------------------------------------------------------|
|-5-5-5-5-5-5-5-5-5-5-5-5-5-5-5-5-5-5-5-5-5-5-5-5-5-5-5-5-5-5-5-5---|
|-2-2-2-2-2-2-0-0-3-3-3-3-3-3-3-3-2-2-2-2-2-2-0-0-3-3-3-0-0-0-3-3---|
|-0-0-0-0-0-0-0-0-0-0-0-0-0-0-0-0-0-0-0-0-0-0-0-0-0-0-0-0-0-0-0-0---|


|----------------------------------------------------------------------------|
|----------------------------------------------------------------------------|
|------------------------1212---1212--------------------------12-12----14-14-|
|-9-9-9-9-9-9-9-9-101010------101010-9-9-9-9-9-9-9-9-10-10-10-------10-10-10-|
|----------------------------------------------------------------------------|
|----------------------------------------------------------------------------|


|-----------------|-----------------|-----------------|-----------------|
|-----------------|-----------------|-----------------|-----------------|
|-----------------|-----------------|-----------------|-----------------|
|-5-5-5-5-5-5-5-5-|-5-5-5-5-5-5-5-5-|-5-5-5-5-5-5-5-5-|-5-5-5-5-5-5-5-5-|
|-2-2-2-2-2-2-2-2-|-3-3-3-3-3-3-3-3-|-2-2-2-2-2-2-2-2-|-3-3-3-0-0-0-3-3-|
|-0-0-0-0-0-0-0-0-|-0-0-0-0-0-0-0-0-|-0-0-0-0-0-0-0-0-|-0-0-0-0-0-0-0-0-|


|------|
|------|
|------|
|-4----|
|-2----|
|-0----|


|------------------------------------|
|------------------------------------|
|------------------------------------|
|-----5-5-5-5-5-5-----5-5-4-4-4-4----|
|-5-5-2-2-2-2-2-2-5-5-2-2-3-3-3-3----|
|-2-2-------------2-2----------------|


|------------------------------------------------------------------------|
|------------------------------------------------------------------------|
|------------------------------------------------------------------------|
|---------5-5-4-4---------5-5-4-4---------5-5-4-4------------------------|
|-7-7-7-7-7-7-5-5-7-7-7-7-7-7-5-5-7-7-7-7-7-7-5-5-----7-7-10-10-10-10----|
|-0-0-0-0---------0-0-0-0---------0-0-0-0---------8-8-8-8--7--7--7--7----|


|------------------------------------------------------------------------|
|------------------------------------------------------------------------|
|------------------------------------------------------------------------|
|-5-5-5-5-5-5-5-5-5-5-5-5-5-5-5-5-7-7-7-7-7-7-7-7-7-7-7-7-10-10-10-10----|
|-2-2-2-2-3-3-3-3-3-3-3-3-3-3-3-3-6-6-6-6-6-6-6-6-6-6-6-6--6--6--6--6----|
|-0-0-0-0-0-0-0-0-0-0-0-0-0-0-0-0----------------------------------------|


|------------------------------------|
|------------------------------------|
|------------------------------------|
|-9-9-9-9-5-5-5-5-5-5-5-5-7-7-7-7----| (Quiet guitar lead in 
|------------------------------------|  2nd last section of song)
|------------------------------------|
Добавлено: 19.08.2013
Другие материалы по этой песне:
  • Аккорды и текст

Страница создана 19.08.2013
http://primanota.ru/endstille/bastard-chords.htm
Привет, Гость.
Предлагаем пройти революционный курс по гитаре.
Подарок от PrimaNota.Ru, забирай!