PrimaNota.ru - самый крупный в мире бесплатный архив песенных текстов, аккордов, табулатур и нот


Endless Pride - En Spegel Av Hjartat - таба, видео

Регистрация Запомнить меня
Войти через:  Facebook Google Twitter Vk Yandex Mail.ru

Endless Pride - En Spegel Av Hjartat - таба, видео

Печатать
Просмотров: 94
Уроки эстрадного вокала в Санкт-Петербурге
Endless Pride - En Spegel Av Hjärtat

Intro: Clear/acoustic guitar

e|---------------------------------------------------------------|
B|------------------------0--------------0-------------0---------|
G|----------0----------0--------------0-------------0------------|
D|-------2----------2--------------4-------------2---------------|
A|----2----------3-------------/5-------------3------------------|
E|-0-------------------------------------------------------------|

Verse: Clear/acoustic guitar (listen to hear the strumming pattern)

e|-0--------------0---------------0--------------0---------------|
B|-0--------------0---------------0--------------0---------------|
G|-0--------------0---------------0--------------0---------------|
D|-2--------------2---------------4--------------2---------------|
A|-2--------------3---------------5--------------3---------------|
E|-0-------------------------------------------------------------|

Pre Chorus:

e|-0--------------0---------------|
B|-0--------------0---------------|
G|-0--------------0---------------|
D|-2--------------2---------------|
A|-2--------------2---------------|
E|-0--------------0---------------|

Chorus: Distorted guitar

e|---------------------------------------------------------------|
B|---------------------------------------------------------------|
G|---------------------------------------------------------------|
D|--5--5--5--5--5--5--5--5--7--7--7--7--7--7--7--7----------2----|
A|--3--3--3--3--3--3--3--3--5--5--5--5--5--5--5--5--2-2-2-2-2----|
E|--3--3--3--3--3--3--3--3--5--5--5--5--5--5--5--5--0-0-0-0-0----|

e|---------------------------------------------------------------|
B|---------------------------------------------------------------|
G|---------------------------------------------------------------|
D|----------2------------2---------------------------------------|
A|--2-2-2-2-2----2-2-2-2-2---------------------------------------|
E|--0-0-0-0-0----0-0-0-0-0----0-0-2--3--2------------------------|

Rhythm guitar during solo:

e|--------------------------------------------------|
B|--------------------------------------------------|
G|--------------------------------------------------|
D|--2--2--2--2--2--2--2--2--5--5--5--5--5--5--5--5--|
A|--2--2--2--2--2--2--2--2--3--3--3--3--3--3--3--3--|
E|--0--0--0--0--0--0--0--0--3--3--3--3--3--3--3--3--|

e|--------------------------------------------------|
B|--------------------------------------------------|
G|--------------------------------------------------|
D|--7--7--7--7--7--7--7--7--5--5--5--5--5--5--5--5--|
A|--5--5--5--5--5--5--5--5--3--3--3--3--3--3--3--3--|
E|--5--5--5--5--5--5--5--5--3--3--3--3--3--3--3--3--|

Solo:

e|--<12>--------------------------------------------------13----------|
B|------<12>----------------------------------------12-13----13~-12~--|
G|----------<12>--11--12p11--9--9-12--11--12p11--9--------------------|
D|--------------------------------------------------------------------|
A|--------------------------------------------------------------------|
E|--------------------------------------------------------------------|

First tapping part

e|--12p7h8(X8)--10p7h8(X8)--12p7h8(X8)--10p7h8(X8)--|
B|--------------------------------------------------|
G|--------------------------------------------------|
D|--------------------------------------------------|
A|--------------------------------------------------|
E|--------------------------------------------------|

Use tremolo picking

e|--12--14--15--17--15--14--12--10--|
B|----------------------------------|
G|----------------------------------|
D|----------------------------------|
A|----------------------------------|
E|----------------------------------|X3

                            Second tapping part

e|--12~--12-14-15-14-12-----10p7h8(X8)--12p8h10(X8)--14p10h12(X8)|
B|----------------------15---------------------------------------|
G|---------------------------------------------------------------|
D|---------------------------------------------------------------|
A|---------------------------------------------------------------|
E|---------------------------------------------------------------|

More tremolo picking

e|----------------------------12b13----13r12---------------------|
B|---------------------8--10-------------------------------------|
G|---------------7--9--------------------------------------------|
D|---------7--9--------------------------------------------------|
A|--7--10--------------------------------------------------------|
E|---------------------------------------------------------------|
Добавлено: 12.08.2015
Другие материалы по этой песне:
  • Аккорды и текст

Страница создана 12.08.2015
http://primanota.ru/endless-pride/en-spegel-av-hjartat-chords.htm
Привет, Гость.
Предлагаем пройти революционный курс по гитаре.
Подарок от PrimaNota.Ru, забирай!