PrimaNota.ru - самый крупный в мире бесплатный архив песенных текстов, аккордов, табулатур и нот


Endless Hallway - A Bad Current - таба, видео

Регистрация Запомнить меня
Войти через:  Facebook Google Twitter Vk Yandex Mail.ru

Endless Hallway - A Bad Current - таба, видео

Печатать
Просмотров: 92
-------------------------------------------------------------------------------
                             A Bad Current- Endless Hallway
-------------------------------------------------------------------------------
Tabbed by:Tyler
Pretty sure its like 99% right...
Check out www.myspace.com/endlesshallway

Tuning: Drop D
Intro
guitar 1 five times
e|--------------------------------------------------------------------|
B|--------------------------------------------------------------------|
G|-------16-------16-------16-------16-------17-----------------------|
D|--------------------------------------------------------------------|
A|-14-14----14-14----14-14----14-14----15-15--------------------------|
E|--------------------------------------------------------------------|
then this once
e|-------19--------19-------19-------19--------20---------------------|
B|--------------------------------------------------------------------|
G|--------------------------------------------------------------------|
D|--------------------------------------------------------------------|
A|-14-14-----14-14----14-14----14-14-----15-15------------------------|
E|--------------------------------------------------------------------|
guitar 2
e|--------------------------------------------------------------------|
B|--------------------------------------------------------------------|
G|--------------------------------------------------------------------|
D|----11---------11---------11----------11----------------------------|
A|-------12---------12---------12----------12---10~-------------------|
E|--------------------------------------------------------------------|

verse 
guitar 1 four times
e|--------------------------------------------------------------------|
B|--------------------------------------------------------------------|
G|--------------------------------------------------------------------|
D|--------------------------------------------------------------------|
A|-0-0-3p2------2h3------3h5------5p3---------------------------------|
E|----------2-2------3-3------5-5-------------------------------------|

guitar 2 two times
e|--------------------------------------------------------------------|
B|--------------------------------------------------------------------|
G|--------------------------------------------------------------------|
D|-7-7-7-7-6-6-6-6----------------------------------------------------|
A|-----------------8-8-8-8-5-5-5-5------------------------------------|
E|--------------------------------------------------------------------|
then guitar 2 once
e|--------------------------------------------------------------------|
B|--------------------------------------------------------------------|
G|-9-9-9-9-9-9-9-9-9-9-9-9--------------------------------------------|
D|-7-7-7-7-6-6-6-6-x-x-x-x-7-7-7-7------------------------------------|
A|-----------------8-8-8-8-5-5-5-5------------------------------------|
E|--------------------------------------------------------------------|
guitar 3 overdub (let each ring out) play once
e|--------------------------------------------------------------------|
B|--------------------------------------------------------------------|
G|--9------------9-----10---9-----------------------------------------|
D|--------12---------------------12--10--12---------------------------|
A|--------------------------------------------------------------------|
E|--------------------------------------------------------------------|

Verse part B 
Guitar1 eight times
e|--------------------------------------------------------------------|
B|--------------------------------------------------------------------|
G|----------------4h5-------5h7---------------------------------------|
D|-----10p9-----------------------------------------------------------|
A|-------------------------------------5p3----------------------------|
E|-7-7-------2-2-------3-3--------5-5---------------------------------|

Guitar 2 four times
e|-5-5-5-5------------------------------------------------------------|
B|-5-5-5-5-1-1-1-1-2-2-2-2-6-6-6-6------------------------------------|
G|-5-5-5-5-2-2-2-2-3-3-3-3-7-7-7-7------------------------------------|
D|-------------------------5-5-5-5------------------------------------|
A|--------------------------------------------------------------------|
E|--------------------------------------------------------------------|
then this four times
e|-5-5-5-5------------------------------------------------------------|
B|-5-5-5-5-1-1-1-1---------6-6-6-6------------------------------------|
G|-5-5-5-5-2-2-2-2---------7-7-7-7------------------------------------|
D|-----------------3-3-3-3-5-5-5-5------------------------------------|
A|-----------------3-3-3-3--------------------------------------------|
E|-----------------3-3-3-3--------------------------------------------|

Prechorus
part 1
guitar 1
e|--------------------------------------------------------------------|
B|--------------------------------------------------------------------|
G|-9-9-9-9-9-9-9-9-9-9-9-9-9-9-9-5-5-5-5-5-5-5-5-9-9-9-9-9-9-9-9------|
D|-7-7-7-7-7-7-7-8-8-8-8-8-8-8-8-3-3-3-3-3-3-3-3-7-7-7-7-7-7-7-7------|
A|-7-7-7-7-7-7-7-8-8-8-8-8-8-8-8-3-3-3-3-3-3-3-3-0-0-0-0-0-0-0-0------|
E|-7-7-7-7-7-7-7-8-8-8-8-8-8-8-8-3-3-3-3-3-3-3-3-0-0-0-0-0-0-0-0------|

e|--------------------------------------------------------------------|
B|-101010101010109-9-9-9-101010101010101010101010101010101010101010---|
G|-x-x-x-x-x-x-x-x-x-x-x-x-x-x-x-x-x-x-x-x-x-x-x-x-x-x-x-x-x-x-x-x----|
D|-7-7-7-7-7-7-7-6-6-6-6-7-7-7-7-7-7-7-7-7-7-7-7-7-7-7-7-7-7-7-7-7----|
A|--------------------------------------------------------------------|
E|--------------------------------------------------------------------|
part 2
Guitar 1
e|--------------------------------------------------------------------|
B|--------------------------------------------------------------------|
G|-9-9-9-9-9-9-9-9-9-9-9-9-9-9-9-5-5-5-5-5-5-5-5-9-9-9-9-9-9-9-9------|
D|-7-7-7-7-7-7-7-8-8-8-8-8-8-8-8-3-3-3-3-3-3-3-3-7-7-7-7-7-7-7-7------|
A|-7-7-7-7-7-7-7-8-8-8-8-8-8-8-8-3-3-3-3-3-3-3-3-0-0-0-0-0-0-0-0------|
E|-7-7-7-7-7-7-7-8-8-8-8-8-8-8-8-3-3-3-3-3-3-3-3-0-0-0-0-0-0-0-0------|
Guitar 2
e|--------------------------------------------------------------------|
B|-1313131313136-6-6-6-6-131313131313131313131313131313131313131313---|
G|-x-x-x-x-x-x-x-x-x-x-x-x-x-x-x-x-x-x-x-x-x-x-x-x-x-x-x-x-x-x-x-x----|
D|-1010101010103-3-3-3-3-101010101010101010101010101010101010101010---|
A|--------------------------------------------------------------------|
E|--------------------------------------------------------------------|

Chorus
Guitar 1 two times
e|--------------------------------------------------------------------|
B|--------------------------------------------------------------------|
G|-9-9-9-9-9-9-9-9-9-9-9-9-9-9-9-5-5-5-5-5-5-5-5-9-9-9-9-9-9-9-9------|
D|-7-7-7-7-7-7-7-8-8-8-8-8-8-8-8-3-3-3-3-3-3-3-3-7-7-7-7-7-7-7-7------|
A|-7-7-7-7-7-7-7-8-8-8-8-8-8-8-8-3-3-3-3-3-3-3-3-0-0-0-0-0-0-0-0------|
E|-7-7-7-7-7-7-7-8-8-8-8-8-8-8-8-3-3-3-3-3-3-3-3-0-0-0-0-0-0-0-0------|

Guitar 2 (start bending slowly halfway through) two times
e|-17171717171717171717171717171717171717171717171717171717171717-----|
B|-x-x-x-x-x-x-x-x-x-x-x-x-x-x-x-x-x-x-x-x-x-x-x-x-x-x-x-x-x-x-x------|
G|-14141414141414141414141414141414141414141414141414141414141414-----|
D|--------------------------------------------------------------------|
A|--------------------------------------------------------------------|
E|--------------------------------------------------------------------|

Verse 2
part A
guitar 1 four times
e|--------------------------------------------------------------------|
B|--------------------------------------------------------------------|
G|--------------------------------------------------------------------|
D|--------------------------------------------------------------------|
A|-0-0-3p2------2h3------3h5------5p3---------------------------------|
E|----------2-2------3-3------5-5-------------------------------------|
guitar 2
e|--------------------------------------------------------------------|
B|--------------------------------------------------------------------|
G|-9h10p9------12-10-12-------------------9h10p-----10-9--------------|
D|---------10-----------------------------------10-------7------------|
A|--------------------------------------------------------------------|
E|--------------------------------------------------------------------|
Part  B
Guitar1 four times
e|--------------------------------------------------------------------|
B|--------------------------------------------------------------------|
G|----------------4h5-------5h7---------------------------------------|
D|-----10p9-----------------------------------------------------------|
A|-------------------------------------5p3----------------------------|
E|-7-7-------2-2-------3-3--------5-5---------------------------------|
Guitar 2
guitar 2 two times
e|--------------------------------------------------------------------|
B|--------------------------------------------------------------------|
G|--------------------------------------------------------------------|
D|-7-7-7-7-6-6-6-6----------------------------------------------------|
A|-----------------8-8-8-8-5-5-5-5------------------------------------|
E|--------------------------------------------------------------------|
then guitar 2 once
e|--------------------------------------------------------------------|
B|--------------------------------------------------------------------|
G|-9-9-9-9-9-9-9-9-9-9-9-9----------5-5-5-5-5-5-5-5-5-5-5-5-----------|
D|-7-7-7-7-6-6-6-6-x-x-x-x-7-7-7-7--7-7-7-7-6-6-6-6-x-x-x-x-7-7-7-7---|
A|-----------------8-8-8-8-5-5-5-5------------------8-8-8-8-5-5-5-5---|
E|--------------------------------------------------------------------|


Part C
guitar 1 four times
e|--------------------------------------------------------------------|
B|--------------------------------------------------------------------|
G|--------------------------------------------------------------------|
D|--------------------------------------------------------------------|
A|-0-0-3p2------2h3------3h5------5p3---------------------------------|
E|----------2-2------3-3------5-5-------------------------------------|
Guitar 2
e|--------------------------------------------------------------------|
B|--------------------------------------------------------------------|
G|--------------------------------------------------------------------|
D|-----5-----5------5-----5------5-----5-----5-----5------------------|
A|-0-0-----------------------0-0--------------------------------------|
E|-------2-2----3-3---5-5----------2-2---3-3---5-5--------------------|
then
e|--------------------------------------------------------------------|
B|--------------------------------------------------------------------|
G|-----4-----4------4-----4------5-----5-----5-----5------------------|
D|--------------------------------------------------------------------|
A|-0-0-----------------------0-0--------------------------------------|
E|-------2-2----3-3---5-5----------2-2---3-3---5-5--------------------|

then play 
prechorus
chorus

Bridge (bass does its thing)
Guitar 1
e|--------------------------------------------------------------------|
B|--------------------------------------------------------------------|
G|-10--------9--2-----5--7----9-2----12--9---10-----12-----13----14---|
D|--------------------------------------------------------------------|
A|--------------------------------------------------------------------|
E|--------------------------------------------------------------------|

Verse 3
part A
guitar 1 four times
e|--------------------------------------------------------------------|
B|--------------------------------------------------------------------|
G|--------------------------------------------------------------------|
D|--------------------------------------------------------------------|
A|-0-0-3p2------2h3------3h5------5p3---------------------------------|
E|----------2-2------3-3------5-5-------------------------------------|
guitar 2 two times
e|--------------------------------------------------------------------|
B|--------------------------------------------------------------------|
G|-9h10p9------12-10-12-------------------9h10p-----10-9--------------|
D|---------10-----------------------------------10-------7------------|
A|--------------------------------------------------------------------|
E|--------------------------------------------------------------------|

play
prechorus
chorus

Outro
e|--------------------------------------------------------------------|
B|-8-8-8-------8-8-8-------9-9-9-------9-9-9--------------------------|
G|-8-8-8-8-8-8-8-8-8-8-8-8-9-9-9-9-9-9-9-9-9-9-9-9--------------------|
D|-6-6-6-6-6-6-6-6-6-6-6-6-7-7-7-7-7-7-7-7-7-7-7-7--------------------|
A|-6-6-6-6-6-6-6-6-6-6-6-6-7-7-7-7-7-7-7-7-7-7-7-7--------------------|
E|-6-6-6-6-6-6-6-6-6-6-6-6-7-7-7-7-7-7-7-7-7-7-7-7--------------------|

e|----------------------------3~----------------------------------------|
B|-8-8-8-------8-8-8----------3~----------------------------------------|
G|-8-8-8-8-8-8-8-8-8-8-8-8----2~----------------------------------------|
D|-6-6-6-6-6-6-6-6-6-6-6-6----2~----------------------------------------|
A|-6-6-6-6-6-6-6-6-6-6-6-6----2~----------------------------------------|
E|-6-6-6-6-6-6-6-6-6-6-6-6----2~----------------------------------------|

Sorry for the confusiness...
http://www.myspace.com/endlesshallway 
| /  slide up
| \  slide down
| h  hammer-on
| p  pull-off
| ~  vibrato
| +  harmonic
| x  Mute note
===============================================================================
Добавлено: 27.06.2012
Вам также может быть интересно:
Другие материалы по этой песне:

Страница создана 04.06.2012
http://primanota.ru/endless-hallway/a-bad-current-chords.htm
Привет, Гость.
Предлагаем пройти революционный курс по гитаре.
Подарок от PrimaNota.Ru, забирай!