PrimaNota.ru - самый крупный в мире бесплатный архив песенных текстов, аккордов, табулатур и нот


Endgames - First-Last-For Everything - бас-таба, видео

Регистрация Запомнить меня
Войти через:  Facebook Google Twitter Vk Yandex Mail.ru

Endgames - First-Last-For Everything - бас-таба, видео

Печатать
Просмотров: 52
Уроки эстрадного вокала в Санкт-Петербурге
Tabbed by: bassm99
E-mail: alanmatthews1966@yahoo.co.uk

Tuning: E, A, D, G

"First-Last-For Everything" from the single "First-Last-For Everything" (1982)
Written by Endgames

Bass Starts: 0:16

Intro: (Play 4 Times)

G|--------------------------------------------------------------------------|
D|--------------------------------------------------------------------------|
A|------5-5--5--------------------------------------------------------------|
E|--2/3--------3-3--2/3--5-5--3--5-5----------------------------------------|

Verse: (Play 4 Times)

G|--------------------------------------------------------------------------|
D|--------------------------------------------------------------------------|
A|------5-5--5--------------------------------------------------------------|
E|--2/3--------3-3--2/3--5-5--3--5-5----------------------------------------|

Bridge:

G|--------------------------------------------------------------------------|
D|--------------------------------------------------------------------------|
A|---------0--1-1-1--0--3-3-3--0--3-3--3-3/-7-------------------------------|
E|--1-1-1-------------------------------------------------------------------|

G|--------------------------------------------------------------------------|
D|--------------------------------------------------------------------------|
A|---------0--1-1-1--0--3-3-3--0--3-3--3-3----------------------------------|
E|--1-1-1-------------------------------------------------------------------|

Chorus:

G|--------------------------------------------------------------------------|
D|--------------------------------------------------------------------------|
A|--5-5--5--3-3--3------------------1-1-1--3-3-3----------------------------|
E|------------------5-5--5--3-3--3------------------------------------------|

G|--------------------------------------------------------------------------|
D|--------------------------------------------------------------------------|
A|--5-5--5--3-3--3------------------1-1-1--3-3-3--3-------------------------|
E|------------------5-5--5--3-3--3------------------------------------------|

Repeat Intro:

Repeat Verse:

Repeat Bridge:

Chorus:

G|--------------------------------------------------------------------------|
D|--------------------------------------------------------------------------|
A|--5-5--5--3-3--3------------------1-1-1--0--3-3-3-------------------------|
E|------------------5-5--5--3-3--3------------------------------------------|

G|--------------------------------------------------------------------------|
D|--------------------------------------------------------------------------|
A|--5-5--5--3-3--3------------------1-1-1--3-3-3---5------------------------|
E|------------------5-5--5--3-3--3------------------------------------------|

Bass Stops: (2:25 - 2:41)

Chorus: (Play 4 Times)

G|--------------------------------------------------------------------------|
D|--------------------------------------------------------------------------|
A|--5-5--5--3-3--3------------------1-1-1--3-3-3----------------------------|
E|------------------5-5--5--3-3--3------------------------------------------|

End: (Fades Out)

G|--------------------------------------------------------------------------|
D|--------------------------------------------------------------------------|
A|--5-5--5--3-3--3----------------------------------------------------------|
E|------------------5-------------------------------------------------------|
Добавлено: 23.06.2016
Другие материалы по этой песне:
  • Аккорды и текст

Страница создана 23.06.2016
http://primanota.ru/endgames/first-last-for-everything-chords.htm
Привет, Гость.
Предлагаем пройти революционный курс по гитаре.
Подарок от PrimaNota.Ru, забирай!