PrimaNota.ru - самый крупный в мире бесплатный архив песенных текстов, аккордов, табулатур и нот


The Endevers - Shes My Girl - бас-таба, видео

Регистрация Запомнить меня
Войти через:  Facebook Google Twitter Vk Yandex Mail.ru

The Endevers - Shes My Girl - бас-таба, видео

Печатать
Просмотров: 57
Tabbed by: 6METAL6BASSIST6
E-mail: petergriffinav@gmail.com

Tuning: EADG

0:06

G|--------|
D|--------|
A|8-\-----|
E|--------|

G|----------------------------------------------------------------|
D|------------0-------1-------3-----------------------------------|
A|1-------------------------------1---1---1---1---1---1---1---1---|
E|----------------------------------------------------------------|

G|--------------------------------|
D|----------------0---1---2---3---|
A|1---1---1---1-------------------|
E|--------------------------------|

0:11

G|----------------------------------------------------------------|.
D|------------0-------1-------3---------------0-------1-------3---|.
A|1-------------------------------1-------------------------------|.
E|----------------------------------------------------------------|.
                                                                   . x2
G|----------------------------------------------------------------|.
D|------------------------------------------------0---1---2---3---|.
A|1---1---1---1---1---1---1---1---1---1---1---1-------------------|.
E|----------------------------------------------------------------|.

0:25

G|----------------------------2-----------------------0-------3---|
D|0-----------0-------3-----------1-----------1-------------------| x3
A|----------------------------------------------------------------|
E|----------------------------------------------------------------|

G|------------------------------------------------------------3---|
D|1---3-------3-------3---3-------3-------3-------3---3---3-------|
A|----------------------------------------------------------------|
E|----------------------------------------------------------------|

G|3---1---------------------------|
D|------------3-------1-----------|
A|----------------------------4---|
E|--------------------------------|

0:41

G|----------------------------------------------------------------|.
D|------------0-------1-------3---------------0-------1-------3---|.
A|1-------------------------------1-------------------------------|.
E|----------------------------------------------------------------|.
                                                                   . x2
G|----------------------------------------------------------------|.
D|------------------------------------------------0---1---2---3---|.
A|1---1---1---1---1---1---1---1---1---1---1---1-------------------|.
E|----------------------------------------------------------------|.

0:54

G|----------------------------2-----------------------0-------3---|
D|0-----------0-------3-----------1-----------1-------------------| x3
A|----------------------------------------------------------------|
E|----------------------------------------------------------------|

G|------------------------------------------------------------3---|
D|1---3-------3-------3---3-------3-------3-------3-------3-------|
A|----------------------------------------------------------------|
E|----------------------------------------------------------------|

G|--------------------------------|
D|3-------------------------------|
A|--------------------------------|
E|--------------------------------|

1:10

G|------------------------------------------8-----6-----------------------------------------8-----|
D|----------------------------------------8-----8-----------------------------------------8-----8-|
A|4-----------------------------------------------------------------------------------------------|
E|------------------------------------------------------------------------------------------------|

G|------------------------------------------8-----6-----------------6-----6-----------------6-----|
D|----------------------------------------8-----8-------------6---8-----8-------------6-6h8-----8-|
A|4-----------------------------------------------------------------------------------------------|
E|------------------------------------------------------------------------------------------------|

G|6---------------------------------------------------------------|
D|----------------4-----------4---3-----------3-------1-------1---|
A|--------4-----------------------------------------------3-------|
E|----------------------------------------------------------------|

G|----------------------------------------------------------------|
D|3---3---3-------3---3---3---3-----------------------------------|
A|--------------------------------1-------------------------------|
E|----------------------------------------------------------------|

G|--------------------------------------------3-------1-----------|
D|------------------------------------------------------------3---|
A|--------------------------------1-------------------------------|
E|----------------------------------------------------------------|

G|------------3-------1-----------|
D|----------------------------3---|
A|1-------------------------------|
E|--------------------------------|

1:37

G|----------------------------------------------------------------|
D|------------0---------------3---------------0-------1-------3---|
A|1-------------------------------1-------------------------------|
E|----------------------------------------------------------------|

G|----------------------------------------------------------------|
D|------------------------------------------------0---1---2---3---|
A|1---1---1---1---1---1---1---1---1---1---1---1-------------------|
E|----------------------------------------------------------------|

G|----------------------------------------------------------------|
D|------------0-------1-------3---------------0-------1-------3---|
A|1-------------------------------1-------------------------------|
E|----------------------------------------------------------------|

G|----------------------------------------------------------------|
D|------------------------------------------------0---1---2---3---|
A|1---1---1---1---1---1---1---1---1---1---1---1-------------------|
E|----------------------------------------------------------------|

1:50

G|----------------------------2-----------------------0-------3---|
D|0-----------0-------3-----------1-----------1-------------------| x3
A|----------------------------------------------------------------|
E|----------------------------------------------------------------|

G|------------------------------------------------------------3---|
D|1---3-------3-------3---3-------3-------3-------3---3---3-------|
A|----------------------------------------------------------------|
E|----------------------------------------------------------------|

G|3---1---------------------------|
D|------------3-------1-----------|
A|----------------------------4---|
E|--------------------------------|

2:07

G|----------------------------------------------------------------|.
D|------------0-------1-------3---------------0-------1-------3---|.
A|1-------------------------------1-------------------------------|.
E|----------------------------------------------------------------|.
                                                                   . x2
G|----------------------------------------------------------------|.
D|------------------------------------------------0---1---2---3---|.
A|1---1---1---1---1---1---1---1---1---1---1---1-------------------|.
E|----------------------------------------------------------------|.

2:21

G|----------------------------2-----------------------0-------3---|
D|0-----------0-------3-----------1-----------1-------------------| x3
A|----------------------------------------------------------------|
E|----------------------------------------------------------------|

G|------------------------------------------------------------3---|
D|1---3-------3-------3---3-------3-------3-------3-------3-------|
A|----------------------------------------------------------------|
E|----------------------------------------------------------------|

G|--------------------------------|
D|3-------------------------------|
A|--------------------------------|
E|--------------------------------|

G|----------------------------------------------------------------|
D|----------------------------------------------------------------|
A|----------------------------------------------------------------|
E|----------------------------------------------------------------|

2:40

G|--------------------------------3---1---------------------------|
D|----0-------1-------2-------3---------------3-------1-----------| x3
A|1-----------------------------------------------------------4---|
E|----------------------------------------------------------------|

G|--------------------------------3---1-------------------------------|
D|----0-------1-------2-------3---------------3-------1---------------| fades out here.
A|------------------------------------------------------------4---1---|
E|--------------------------------------------------------------------|
Добавлено: 13.06.2016
Другие материалы по этой песне:
  • Аккорды и текст

Страница создана 13.06.2016
http://primanota.ru/endevers/shes-my-girl-chords.htm
Привет, Гость.
Предлагаем пройти революционный курс по гитаре.
Подарок от PrimaNota.Ru, забирай!