PrimaNota.ru - самый крупный в мире бесплатный архив песенных текстов, аккордов, табулатур и нот


Endeverafter - From The Ashes Of Sin - таба, видео

Регистрация Запомнить меня
Войти через:  Facebook Google Twitter Vk Yandex Mail.ru

Endeverafter - From The Ashes Of Sin - таба, видео

Печатать
Просмотров: 127
-------------------------------------------------------------------------------
                           From the ashes of sin - Endeverafter
-------------------------------------------------------------------------------
Tabbed by: Alanhutchinson
Email: planet-x-alan@hotmail.co.uk

Seen there was no tab for this song, so thought i'd give it a go myself,
 think it sounds pretty much there with what i've got. If anyone fancies
 giving me a hand with the pully off bits and the solo it would be cool,
 i'll probably upload a guitar pro version when i get round to it.

any questions, email me =]
Enjoy

Tuning:Dropped D (D,a,d,g,b,e)
riff 1 (play twice)
guitar 1
e|------------------------------------------------------------------------|
B|------------------------------------------------------------------------|
G|------------------------------------------------------------------------|
D|0-0-------3---7-9-10-9---8-8-9-10-9--7-7-5-5-8-7-5----------------------|
A|0-0-5-3-5------0-0--0----8-8--x--x---7-7-5-7-8-7-5----------------------|
D|0-0--0-----0-------------8-8---------7-7-5-7-8-7-5----------------------|
guitar 2 (harmony, only play 2nd time round)
e|--------------------------------------------------------------------------|
B|--------------------------------------------------------------------------|
G|--------------10-12-14-12------12-14-12-----------------------------------|
D|----------------0--0--0---8-8----x--x-------------------------------------|
A|---8-7-8-12---------------8-8---------------------------------------------|
D|0-0-0------0--------------8-8---------------------------------------------|
riff 2.
guitar 1
e|-------------------------------------------------------------------------|
B|-------------------------------------------------------------------------|
G|-------------------------------------------------------------------------|
D|-0-0-----------------3-2-0--7-7-7-x-x-x-5-5-5-10-10-10-------------------|
A|-0-0-5-3-5-0-----5-0--------7-7-7-x-x-x-5-5-5-10-10-10-------------------|
D|-0-0--0------3~0------------7-7-7-x-x-x-5-5-5-10-10-10-------------------|

e|-------------------------------------------------------------------------|
B|-------------------------------------------------------------------------|
G|-------------------------------------------------------------------------|
D|-0-0-----------------3-2-0--7--|
A|-0-0-5-3-5-0-----5-0--------7--| Followed by a pull off bit i can't work
D|-0-0--0------3~0------------7--| out.
Verse riff
e|---------------------------------------------------------------------------|
B|---------------------------------------------------------------------------|
G|---------------------------------------------------------------------------|
D|-0-0------------0-0-0-----------0-0-0-----------8-8-8----------------------|
A|-0-0------------0-0-0-----------0-0-0-----------8-8-8----------------------|
D|-0-0------------0-0-0-----------0-0-0-----------8-8-8-8-8-8-8-7-7-5-7-8-7-5|
Bit before chorus
e|---------------------------------------------------------------------------|
B|---------------------------------------------------------------------------|
G|---------------------------------------------------------------------------|
D|-12-12-12-12-12-12-12-8-8-8-8-8-8-8-5-5-5-5-5-5-5-10-----------------------|
A|-12-12-12-12-12-12-12-8-8-8-8-8-8-8-5-5-5-5-5-5-5-10-----------------------|
D|-12-12-12-12-12-12-12-8-8-8-8-8-8-8-5-5-5-5-5-5-5-10-----------------------|
Chorus
e|-----------------------------------------------------------------------------|
B|-----------------------------------------------------------------------------|
G|-----------------------------------------------------------------------------|
D|-8----10---------------------------------------------------------------------|
A|-8----10---------------------------------------------------------------------|
D|-8----10----0-0-0-0-0-0-0-0-0-0-0-0-0-0-0-0-0-0-0-0-5-0-3-0-5-0-6-0-5-0-3-0-5|
Guitar 2
e|---------------------------------------------------------------------------|
B|---------------------------------------------------------------------------|
G|---------------------------------------------------------------------------|
D|---------------------------------------------------------------------------|
A|-------------------12-10-12-13-12-10-12---------12-10-12-13-12-10-12-------|
D|---------------------------------------------------------------------------|


| /  slide up
| \  slide down
| h  hammer-on
| p  pull-off
| ~  vibrato
| +  harmonic
| x  Mute note
===============================================================================
Добавлено: 30.03.2012
Другие материалы по этой песне:
  • Аккорды и текст

Страница создана 30.03.2012
http://primanota.ru/endeverafter/from-the-ashes-of-sin-chords.htm
Привет, Гость.
Предлагаем пройти революционный курс по гитаре.
Подарок от PrimaNota.Ru, забирай!